Hide Commercials
Did you know?
No 'did you know', Add an info for this song
Scorpions - Still Loving You Chords
Ranking: 6.06 Sign Up and Rank!

Scorpions - Still Loving You



Intro:

Guitar 1: x2

   Gm       Gm/F   Gm/Eb             
e|---6--------6-------6-----9-8-6---|
B|-----8--------8-------8---------8-|
G|-------7--------7-------7---------|
D|-0--------------------------------|
A|----------8-------6---------------|
E|----------------------------------|

   Gm/Eb           D7             
e|----6---------------5----------|
B|------8---------------7--------|
G|--------7---------------5------|
D|-----------8-----0----------7--|
A|-6-----------------------------|
E|-------------------------------|

Guitar 2: (only in the second time)

e|-------3-------3-------3---------------|
B|-----3-------3-------3----2--1h2p1-----|
G|---3-------3-------3---------------3-0-|
D|-5-------3-------1---------------------|
A|---------------------------------------|
E|---------------------------------------|

e|-3----------------2-|
B|---3----------1-----|
G|-----3----------2---|
D|--------1--0--------|
A|--------------------|
E|--------------------|

Gm                 
Time, it needs time
   Gm                      
To win back your love again
          A                D    
I will be there, I will be there
Gm             
Love, only love
     Gm                         
Can bring back your love someday
          A                D     Gm
I will be there, I will be there   

Bridge:

Guitar 1: x2

   Gm       Gm/F   Gm/Eb             
e|---6--------6-------6-----9-8-6---|
B|-----8--------8-------8---------8-|
G|-------7--------7-------7---------|
D|-0--------------------------------|
A|----------8-------6---------------|
E|----------------------------------|

   Gm/Eb           D7             
e|----6---------------5----------|
B|------8---------------7--------|
G|--------7---------------5------|
D|-----------8-----0----------7--|
A|-6-----------------------------|
E|-------------------------------|

Guitar 2:

e|----------------------------------|
B|-----------1----------------------|
G|-------2-3-----3-2-3---2-0-2s3--2-|
D|-3s5------------------------------|
A|----------------------------------|
E|----------------------------------|

e|----------------------------8~------------|
B|------------------/8--10-11-----11-10-11~-|
G|-0-2-3-5-3-5b7----------------------------|
D|------------------------------------------|
A|------------------------------------------|
E|------------------------------------------|

e|------13--13b15~--------------------------|
B|-8-11--------------13b15-13--11----13-b15-|
G|--------------------------------12--------|
D|------------------------------------------|
A|------------------------------------------|
E|------------------------------------------|

 Gm                    
Fight, babe, I'll fight
   Gm                      
To win back your love again
          A                D    
I will be there, I will be there
Gm             
Love, only love
     Gm                        
Can break down the wall someday
          A                D     Gm
I will be there, I will be there   

        Eb      
If we'd go again
Bb                    F    Gm
All the way from the start   
         Eb          
I would try to change
    Bb                     F    Gm
The things that killed our love   
               Cm                 D   
Your pride has built a wall, so strong
                   Gm    Gm/F
That I can't get through     
         Eb              
Is there really no chance
    F              
To start once again
           Gm 
I'm loving you

Bridge:

Guitar 1: x2

   Gm       Gm/F   Gm/Eb             
e|---6--------6-------6-----9-8-6---|
B|-----8--------8-------8---------8-|
G|-------7--------7-------7---------|
D|-0--------------------------------|
A|----------8-------6---------------|
E|----------------------------------|

   Gm/Eb           D7             
e|----6---------------5----------|
B|------8---------------7--------|
G|--------7---------------5------|
D|-----------8-----0----------7--|
A|-6-----------------------------|
E|-------------------------------|

Guitar 2:

e|-------3-------3-------3---------------|
B|-----3-------3-------3----2--1h2p1-----|
G|---3-------3-------3---------------3-0-|
D|-5-------3-------1---------------------|
A|---------------------------------------|
E|---------------------------------------|

e|-3----------------2-|
B|---3----------1-----|
G|-----3----------2---|
D|--------1--0--------|
A|--------------------|
E|--------------------|

e|-----------8~------------|
B|-/8--10-11-----11-10-11~-|
G|-------------------------|
D|-------------------------|
A|-------------------------|
E|-------------------------|

e|------13--13b15~-------------------------|
B|-8-11--------------13b15-13-11----13-b15-|
G|-------------------------------12--------|
D|-----------------------------------------|
A|-----------------------------------------|
E|-----------------------------------------|

 Gm          
Try, baby try
    Gm                   
To trust in my love again
          A                D    
I will be there, I will be there
Gm            
Love, our love
     Gm                      
Just shouldn't be thrown away
          A                D     Gm
I will be there, I will be there   

        Eb      
If we'd go again
Bb                    F    Gm
All the way from the start   
         Eb          
I would try to change
    Bb                     F    Gm
The things that killed our love   
               Cm                 D   
Your pride has built a wall, so strong
                   Gm    F
That I can't get through  
         Eb              
Is there really no chance
    F               Gm
To start once again   
        Eb      
If we'd go again
Bb                    F    Gm
All the way from the start   
         Eb          
I would try to change
    Bb                     F    Gm
The things that killed our love   
          Cm                      D  
Yes, I've hurt your pride, and I know
                   Gm    Gm/F
What you've been through     
           Eb              
You should give me a chance
     F               
This can't be the end
                 Gm   Eb  Bb  F
I'm still loving you           
                 Gm   Eb  Bb  F
I'm still loving you           
                 Gm   Eb  Bb
I'm still loving you        
            F   
I need your love
                 Gm   Eb  Bb
I'm still loving you        
                   F  
Still loving you baby!

Bridge:
Gm Eb Bb F Gm Eb Bb F

             Gm   Eb  Bb
Still loving you        
            F   
I need your love
             Gm   Eb  Bb
Still loving you        
            F    Gm Eb Bb F
I need your love           
             Gm   Eb  Bb
Still loving you        
            F         Gm Eb Bb
I need your love  ohhh        
            F    Gm
I need your love   

If you like the way the song is edited, help us grow with your like please


More songs of Scorpions:
Send Me An Angel You And I Wind Of Change Rock You Like A Hurricane
More songs from the category Rock:
U2 - Ordinary Love
Imagine Dragons - Radioactive
Bon Jovi - It's My Life
Pink floyd - Breathe
Adele - I'll Be Waiting