Hide Commercials
Did you know?
No 'did you know', Add an info for this song
Scorpions - Send Me An Angel Chords
Ranking: 6.06 Sign Up and Rank!

Scorpions - Send Me An Angel



Category: Rock | Familiar Songs
Intro: x4

  Ebm      Bmaj7   C#      Bbm      
e|---------------------------------|
B|---4-------4-------2-------2-----|
G|-----3-------3-------1-------3---|
D|-1-----4-------4-------3-------3-|
A|---------2-------4-------1-------|
E|---------------------------------|

   Ebm    Bmaj7   C#               
e|--------------------------------|
B|--4-------4-------------2-------|
G|----3-------3-------1-------1---|
D|-1----4-------4---3---3---3---3-|
A|--------2-------4---------------|
E|--------------------------------|

    Ebm      Bmaj7       Bbm       F#  Ebm
The wise man said   just walk this way    
       Bmaj7         C#   
To the dawn   of the light
    Ebm       Bmaj7   Bbm      F#   Ebm
The wind will blow   into your face    
       Bmaj7          C#
As the years pass you by
Ebm       Bmaj7       Bbm    F#    Ebm
Hear this voice  from deep inside     
         Bmaj7         C#   
It's the call  of your heart
Ebm        Bmaj7      Bbm      F#    Ebm
Close your eyes   and you will find     
        Bmaj7        C#   Fm
Passage out   of the dark   

Fm     Eb          Cm 
Here I am  (here I am)
         C#          Eb    Fm
Will you send  me an angel   
Fm     Eb          Cm 
Here I am  (here I am)
       C#           Eb       Fm 
In the land  of the morning star

Bridge: x2

  Fm      C#maj7   Eb      Cm       
e|---------------------------------|
B|---6-------6-------4-------4-----|
G|-----5-------5-------3-------5---|
D|-3-----6-------6-------5-------5-|
A|---------4-------6-------3-------|
E|---------------------------------|

   Fm    C#maj7   Eb               
e|--------------------------------|
B|--6-------6-------------4-------|
G|----5-------5-------3-------3---|
D|-3----6-------6---5---5---5---5-|
A|--------4-------6---------------|
E|--------------------------------|

Fm       C#maj7    Cm        Ab    Fm
Wise man said just find your place   
       C#maj7      Eb  
In the eye of the storm
Fm       C#maj7   Cm       Ab    Fm
Seek the roses   along the way     
      C#maj7       Eb     Gm
Just beware of the thorns   

Gm     F           Dm 
Here I am  (here I am)
         Eb          F     Gm
Will you send  me an angel   
Gm     F           Dm 
Here I am  (here I am)
       Eb           F        Ebm
In the land  of the morning star

Bridge: x2

  Ebm      Bmaj7   C#      Bbm      
e|---------------------------------|
B|---4-------4-------2-------2-----|
G|-----3-------3-------1-------3---|
D|-1-----4-------4-------3-------3-|
A|---------2-------4-------1-------|
E|---------------------------------|

   Ebm    Bmaj7   C#               
e|--------------------------------|
B|--4-------4-------------2-------|
G|----3-------3-------1-------1---|
D|-1----4-------4---3---3---3---3-|
A|--------2-------4---------------|
E|--------------------------------|

Ebm      Bmaj7      Bbm        F#    Ebm
Wise man said  just raise your hand     
          Bmaj7         C#  
And reach out  for the spell
Ebm      Bmaj7         Bbm      F#    Ebm
Find the door   to the promised land     
      Bmaj7          C#  
Just believe  in yourself
Ebm       Bmaj7       Bbm    F#    Ebm
Hear this voice  from deep inside     
         Bmaj7          C#   
It's the call   of your heart
Ebm        Bmaj7      Bbm      F#    Ebm
Close your eyes   and you will find     
        Bmaj7        C#    Fm
The way out   of the dark    

Fm     Eb         Cm 
Here I am (here I am)
         C#         Eb    Fm
Will you send me an angel   
Fm     Eb         Cm 
Here I am (here I am)
       C#          Eb       Fm 
In the land of the morning star
Fm     Eb         Cm 
Here I am (here I am)
         C#         Eb    Fm
Will you send me an angel   
Fm     Eb         Cm 
Here I am (here I am)
       C#          Eb       Fm 
In the land of the morning star
Fm     Eb         Cm 
Here I am (here I am)
         C#         Eb    Fm
Will you send me an angel   
Fm     Eb         Cm 
Here I am (here I am)
       C#          Eb       Fm 
In the land of the morning star
Fm     Eb         Cm 
Here I am (here I am)
         C#         Eb    Fm
Will you send me an angel   
Fm     Eb         Cm 
Here I am (here I am)
       C#          Eb       Fm 
In the land of the morning star


If you like the way the song is edited, help us grow with your like please


More songs of Scorpions:
You And I Rock You Like A Hurricane Wind Of Change Still Loving You
More songs from the category Rock:
Vance Joy - Riptide
Blink 182 - All The Small Thing
Jack Johnson - Better Together
Adam Ant - Wonderful
Asaf Avidan - Love it or leave it