My Songs
My Songs
Hide Commercials
Did you know? No 'did you know', Add an info for this song
בית הבובות - עד שבאת Chords
Ranking: 6.1 Sign Up and Rank!

בית הבובות - עד שבאת

Author And Composer: אמיר אטיאס
Song Editor: TAB4U Staff Report a Mistake
Login To Report Sign up \ Login

Category: לא הוגדר
Reset
size
פתיחה:

e|------------------------------|
B|-1---------3--0------------0--|
G|------0---------------0-------|
D|----2---------------0---------|
A|-3------3---------------------|
E|----------------3-------3-----|

e|-----------------0-----------------|
B|--------4-4-4------------------0---|
G|------4-------4------------2-----0-|
D|----4------------------2-----0-----|
A|-2-------------------2-------------|
E|-------------------0-------3-------|

e|----------------------------|
B|--------1-------1-5s7-7-7---|
G|-----0------------3s5-----5-|
D|------------------5s7-------|
A|--3-------2-----0-----------|
E|----------------------------|

e|-------------------------0--------|
B|------------------------0---------|
G|----4-4-4---------0---0-----------|
D|----4-----4-----2---2-------------|
A|-2------------2---2---------------|
E|------------0---------------0-2-3-|

C     Em  B7    G
אחרי הכל אתה מת  
     B7       D       G        
אין זמן להתחרט, אין מקום להתחבט
C     Em         B7    G
אם אתה חי אז כבר תחיה   
      B7    D             G         
אין ממה לפחד, הרי האלוהים הוא גם אשם

פזמון: 

Em       B7       G      C
עד שבאת, שבאת והצלת אותי  
C    Em7     
איזה מזל שבאת
Em          B7       Am
בדיוק שכבר עמדתי לוותר 
Em       B7       G       C
אז את באת, שבאת והצלת אותי 
   C Em7     
וכמה טוב שבאת
Em           B7        Am
בדיוק שכבר הרמתי את ידיי 

C  Em   B7     G
מה יש בה באמת   
G          
שכל כך מושך
      B7             D 
וכמו פרפר לאש אני עיוור
C   Em        B7      G
אולי עכשיו ואולי אחרי  
   B7             D               G
שהכול יגמר נוכל להיפגש נירצה להיזכר

פזמון

סולו:

e|-----7-10--------8------------------10|
B|---8--------7-10-------7-8-10-8-7-8---|
G|-7--------8----------9----------------|
D|-------------------9------------------|
A|--------------------------------------|
E|--------------------------------------|

e|-7------------------------------7-10-----|
B|---8----10---7-----10-7-------8---------7|
G|-----7---------7--------8---7---------8--|
D|-----------------7--------9---------9----|
A|-----------------------------------------|
E|-----------------------------------------|

e|----7-8-7-----------------------|
B|-10-------7-10-9-8--7s8-7s8-7s8-|
G|--------------------8s9-8s9-8s9-|
D|--------------------------------|
A|--------------------------------|
E|--------------------------------|

e|-------------------------------7|
B|-7---------10-7-----10-7-----7--|
G|-7-7---7-7------7-------8--8----|
D|---7p9-7-5--------7------9------|
A|--------------------------------|
E|--------------------------------|
מעבר:
C B7 C B7 x2

פזמון x2
מעבר:
C B7 C B7 x2

סיום:
C B7 C B7 x2
If you like the way the song is edited, help us grow with your like please
More songs of בית הבובות:
More songs from the category לא הוגדר:
טונה - עולם משוגע
כנסיית השכל - הלילות
נושאי המגבעת - פיקציה
אהוד בנאי - הכנאפה מתוקה
דניאל סלומון - ספרי לי