My Songs
PubilcPrivate
My Songs
Full Access
Hide Ads
Guns N' Roses - Sweet Child O' Mine - Guitar Verse and Intro
Scroll There
Scroll There

Guitar Verse and Intro


    C#		                 
e|--------------14----13-----|--|
B|-----14--------------------|--|
G|--------13-11----13----13--|--|
D|--11-----------------------|x2|
A|---------------------------|--|
E|---------------------------|--|

     B                         
e|-------------14----13----|--|
B|----14-------------------|--|
G|------13-11----13----13--|--|
D|--13---------------------|x2|
A|-------------------------|--|
E|-------------------------|--|

   F#                          
e|-------------14----13----|--|
B|----14-------------------|--|
G|-11----13-11----13----13-|--|
D|-------------------------|x2|
A|-------------------------|--|
E|-------------------------|--|

   F#                           C#              
e|-11----------11----13----14----13----11------|
B|-------14----------------------------------14|
G|----13----13----13----13----13----13----13---|
D|---------------------------------------------|
A|---------------------------------------------|
E|---------------------------------------------|

Learn Guitar Verse and Intro


    C#		                 
e|--------------14----13-----|--|
B|-----14--------------------|--|
G|--------13-11----13----13--|--|
D|--11-----------------------|x2|
A|---------------------------|--|
E|---------------------------|--|

     B                         
e|-------------14----13----|--|
B|----14-------------------|--|
G|------13-11----13----13--|--|
D|--13---------------------|x2|
A|-------------------------|--|
E|-------------------------|--|

   F#                          
e|-------------14----13----|--|
B|----14-------------------|--|
G|-11----13-11----13----13-|--|
D|-------------------------|x2|
A|-------------------------|--|
E|-------------------------|--|

   F#                           C#              
e|-11----------11----13----14----13----11------|
B|-------14----------------------------------14|
G|----13----13----13----13----13----13----13---|
D|---------------------------------------------|
A|---------------------------------------------|
E|---------------------------------------------|