My Songs
Hide Ads »

Guns N' Roses - Sweet Child O' Mine


Editor: TAB4U Staff
Rock Familiar Songs Guitar solo
Guitar Verse and Intro
Intro:

e||-----------------------------------------------------|
B||-----------------------------------------------------|
G||---------------3-------------------------------------|
D||------3---4-6----6-4-3---3-----4-------2-1---2-1---1-|
A||-4---------------------4---2--------2------------2---|
E||-----------------------------------------------------|

e|------------------------------||
B|------------------------------||
G|------------------------------||
D|---------4-----4-3----4--3----||
A|-----2h4-----4------4-------4-||
E|-2----------------------------||
Guns N' Roses
This I LovePatienceCivil WarDon't CryKnocking On Heaven's DoorNovember Rain
Rock
Aerosmith - Don't Wanna Miss A Thing
Aerosmith - Legendary Child
Nirvana - Lithium
The Beatles - Cry Baby Cry
The Beatles - Love me do
Sweet Child O' Mine Replies
Login To reply - Sign up \ Login