dont panic chords by Coldplay

Author And Composer:chris martin
Editor: Edited by user Edit song
Strumming:
No Easy Version
Am                  C     
Bones, sinking like stones
             Fmaj7    
All that we fought for
Am                  C    
Homes, places we've grown
             Fmaj7    
All of us are done for

Dm               Dm6                  Am
And we live in a beautiful world        
    G                 
Yeah we do, yeah we do
Dm               Dm6              Fmaj7
We live in a beautiful world           

Am                  C     
Bones, sinking like stones
             Fmaj7    
All that we fought for
Am                  C    
Homes, places we've grown
             Fmaj7    
All of us are done for

Dm               Dm6                  Am
And we live in a beautiful world        
    G                 
Yeah we do, yeah we do
Dm               Dm6              Fmaj7
We live in a beautiful world           

Bridge:

e|----|-----12--12--12--|12--12--12--12---|
B|---5|/13----13--13--13|--13--13--13--13-|
G|----|-----------------|-----------------|
D|----|-----------------|-----------------|
A|----|-----------------|-----------------|
E|----|-----------------|-----------------|

e|------5---------|--------5-------|
B|-\5-6-----5-6-5-|-5-6-----5-6-5--|
G|----------------|----------------|
D|----------------|----------------|
A|----------------|----------------|
E|----------------|----------------|

e|-----12--12--12--|12--12--12--12---|
B|/13----13--13--13|--13--13--13--13-|
G|-----------------|-----------------|
D|-----------------|-----------------|
A|-----------------|-----------------|
E|-----------------|-----------------|

e|------5---------|--------5-----------|
B|-\5-6-----5-6-5-|---5-6-----5-6-5----|
G|----------------|--------------------|
D|----------------|--------------------|
A|----------------|--------------------|
E|----------------|--------------------|

Am             C   
Oh, all that I know
                        Fmaj7   
There's nothing here to run from
  Am     
Cos yeah,
            C                    Fmaj7
Everybody here got somebody to lean on
Coldplay
Hymn For The WeekendViva La VidaPrincess Of ChinaAdventure Of A LifetimeA Sky Full Of StarsMiraclesParadiseEverglowYellowIn My Place
לא הוגדר
Balkan Beat Box - Shout It Out
DHT - Listen To Your Heart
Coldplay - dont panic
Bryan Adams - Heaven
Eric Clapton - San Francisco Bay Blues