Hide Commercials
Did you know? No 'did you know', Add an info for this song
גיא מנטש ויהל דורון - הכל יכול לקרות Chords
Reset
size
פתיחה: x2

   Gm                          Bb               
e|-----------------------|--|------------------|
B|-----------------------|--|----3---3---3---3-|
G|---3---3---3---3-----3-|--|------------------|
D|-0---0---0---0----0----|x2|-/3---3---3---3---|
A|-----------------------|--|------------------|
E|-----------------------|--|------------------|

          Am                      
e|-------------------------------|
B|-----3----1---1---1---1------1-|
G|-------------------------------|
D|-3------2---2---2---2-----2----|
A|-------------------------------|
E|-------------------------------|

          Gm
שוב אני נזכר
 Am          Bb             
איך היינו בורחים למבנה הנטוש
                 Gm      
שני ילדים חולמים אותו דבר
Gm   Am               Bb        
משחקי חרבות  מלחמות בלי למות    

C  Bb                  Gm
על המסילה  אני שם מטבע   
C  Bb                            Gm  
רכבות חולפות  הזמן נחצה   אתה שומע   

                Dm  
עכשיו כשאנחנו רחוקים
F/E   F              
כבר אי אפשר לחזור    
F/E   F                              Dm    
לחלומות לנעורים להרגשה  שהכל יכול לקרות    

                   Gm  
האמת כל כך הרבה זמן עבר
 Am       Bb        
אין לי אוויר   לחלום
                Gm        
קמים כל יום עושים אותו דבר
Gm  Am  Bb          
מסתובבים במקום      

Bb                       Gm 
היינו מנגנים  אף אחד לא שומע
 Gm          Am   
לומדים שירים מבחוץ
Gm  Am      Bb             Gm      
במקלט אטום   כאן לא יפגע בי כלום   

Am  Bb                  Gm 
ידענו שאפשר   תמיד לסלוח   
              Gm     
רק סיפור אחד שלא נגמר
Am  Bb          
לא נותן לשכוח   
                Dm  
עכשיו כשאנחנו רחוקים
F/E   F              
כבר אי אפשר לחזור    
F/E   F                              Dm    
לחלומות לנעורים להרגשה  שהכל יכול לקרות    

                   Gm  
האמת כל כך הרבה זמן עבר
 Am       Bb        
אין לי אוויר   לחלום
                Gm        
קמים כל יום עושים אותו דבר
Am  Bb          
מסתובבים במקום  

מעבר:
Ebmaj7 Gm F

             F  Gm  Ebmaj7       F 
הכל יכול לקרות         יכול להשתנות

סיום: x4

   Gm                          Bb               
e|-----------------------|--|------------------|
B|-----------------------|--|----3---3---3---3-|
G|---3---3---3---3-----3-|--|------------------|
D|-0---0---0---0----0----|x2|-/3---3---3---3---|
A|-----------------------|--|------------------|
E|-----------------------|--|------------------|

          Am                      
e|-------------------------------|
B|-----3----1---1---1---1------1-|
G|-------------------------------|
D|-3------2---2---2---2-----2----|
A|-------------------------------|
E|-------------------------------|
If you like the way the song is edited, help us grow with your like please
More songs of גיא מנטש:
More songs from the category לא הוגדר:
עומר אדם ושרית אביטן - לא צפוי
Kodaline - All I Want
גד אלבז - מאיפה להתחיל
טיפקס - עדיף ללכת עכשיו
אבי גרייניק - אל האור