The Day That Never Comes chords by Metallica

No Easy Version
Intro:
x2                                 
e|--------12--------12-------12---|
B|----13--------13--------12------|
G|14---------14--------12---------|
D|--------------------------------|
A|--------------------------------|
E|--------------------------------|

e|--------12---------14--------14-|
B|----12---------15---------15----|
G|12---------12---------12--------|
D|--------------------------------|
A|--------------------------------|
E|--------------------------------|

e|--------14---------12-------12--|
B|----15---------13--------13-----|
G|12---------14---------14--------|
D|--------------------------------|
A|--------------------------------|
E|--------------------------------|
       x2                           
e|---------------------------------|
B|---------------------------------|
G|7--9-------------7--9------------|
D|------7--7/9--5-------7--7/9--7--|
A|5--7-------------5--7------------|
E|------5--5/7--3-------5--5/7--5--|

e|--------------------------------|
B|--------------------------------|
G|7--9----------------------------|
D|------7--7/9--5--5/7--7/9--9/10-|
A|5--7----------------------------|
E|------5--5/7--3--3/5--5/7--7/8--|

e|--------------------------------|
B|--------------------------------|
G|--------------------------------|
D|9-5/7-7/9-9/10-10p7-------------|
A|-------------------------10-12--|
E|7-------------------------------|

e|--------------------------------|
B|--------------------------------|
G|--------------------------------|
D|--------------------------------|
A|10h12--10-12-14--12-14-15-14-15/|
E|--------------------------------|

e|------------------------------------|
B|------------------------------------|
G|------------------------------------|
D|---------------------------14-------|
A|17-15--14h15-14---14-15-17----17-15-|
E|------------------------------------|

e|--------------------------------|
B|--------------------------------|
G|--------------------------------|
D|---14-15-14--15-17-19-----------|
A|17------------------------------|
E|--------------------------------|

Bridge:
Am G Em C x4 Am

G                 Em    C
Born to push you around  
C                 Am  G
Better just stay down  
G         Em
You put away
            C    
He hits the flesh
             Am   
You hit the ground
G                 Em  C
Mouth so full of lies  
C                   Am  G
Tend to block your eyes  
G               Em   
Just keep them closed
               C        D       Am
Keep praying, just keep waiting   

G                  Em   C  Am
Waiting for the one          
    G                Em   C  Am
The day that never comes       
          G               
When you stand up and feel
     Em    C  Am
The warmth      
        G               Em   C  E
But the sunshine never comes,    
E                           
No, the sunshine never comes

Bridge: 
Am G G  Am Am G G  Am Am

G                      Em   C
Pushed you across that line  
C                    Am 
Just stay down this time
G             Em
Hide in yourself
             C    
Crawl in yourself,
                  Am 
You'll have your time
G                  Em   C
God I'll make them pay   
C                  Am  G
Take you back one day   
G              Em 
I'll end this day,
               C    D        Am 
I'll splatter color on this grey

G                   Em  C Am
Waiting for the one         
    G               Em   C  Am
The day that never comes      
Am        G               
When you stand up and feel
     Em     C Am
The warmth      
Am      G               Em    C
But the sunshine never comes   

Bridge:
E5 G5 A5 C5 B5
C5 E5 B5 E5 x2
E5   E5   E5   B5 Bb5 
E5   E5   E5   B5 Bb5  E5 

E5                        
Love is a four letter word
E5               B5 Bb5 E5
And never spoken here     
E5                        
Love is a four letter word
E5                  B5 Bb5 E5
Here in this prison          
Bridge:
C G Am G x4

  F#5    A5  F#5  A5 F#5     A5
I suffer this no     longer    
     F#5  A5 F#5 A5
I'll put  an end to
A5  B5 G#5    B5  C#5 A5   
This I swear, this I  swear
    C#5 D5   B5   
The sun will shine
D5                        
This I swear, This I swear
       E          E
This I swear       
Bridge:
C G Am G x4

Solo

Ending:
Am G C G x4
Metallica
BatteryNothing Else MattersThe Memory RemainsOneFade To BlackSad But TrueEnter SandmanTurn the Page
Metal / Heavy metal
Metallica - Battery
Alice In Chains - Them bones
Alice In Chains - Nutshell
Ozzy Osbourne - Crazy train
Nirvana - Territorial Pissings

The Day That Never Comes Replies

Login To reply - Sign up \ Login