My Songs
My Songs
Hide Ads »

Tenth Avenue North - By your side


Editor: TAB4U Staff
פופ
To view Strummings you must be a logged in userSign up \ Login
Auto Scroll Add to my songs
Intro:

   G                               
e|--------------------------------|
B|-----------0------------------0-|
G|----0----0---0----0----0----0---|
D|------12-------12--------12-----|
A|-10-----------------10----------|
E|--------------------------------|
          Em                       
e|--------------------------------|
B|----------------0---------------|
G|-0----0---0---0---0---0---0---0-|
D|---12-------9-------9-------9---|
A|--------7---------------7-------|
E|--------------------------------|
           D4                      
e|--------------------------------|
B|-0---------------0--------------|
G|---0---0---0---0---0---0---0---0|
D|-----9-------7-------7-------7--|
A|---------5---------------5------|
E|--------------------------------|
           Cmaj7                   
e|--------------------------------|
B|-0----------------0-------------|
G|---0---0----0---0---0---0---0---|
D|-----7--------5-------5-------5-|
A|----------3---------------3-----|
E|--------------------------------|

e|-----------|
B|---0-------|
G|-0---0---0-|
D|-------5---|
A|-----------|
E|-----------|

 G                              
Why are you striving these days?‎
              Em                 
Why are you trying to earn grace?‎
              D4   
Why are you crying?‎
                    Cmaj7
Let me lift up your face 
                 G  
Just don't turn away
               G             
Why are you looking for love?‎
                     Em     
Why are you still searching?‎
Em                  
As if I'm not enough
                  D         
To where will you go, child?‎
                       Cmaj7
Tell me where will you run  
                   G  
To where will you run?‎

               Em          
'Cause I'll be by your side
   C             
Wherever you fall
         G          
In the dead of night
    D            
Whenever you call
      Em              
And please don't fight
       C                      G 
These hands that are holding you
 D                    G 
My hands are holding you

                G             
Look at these hands at my side
                    Em  
They swallowed the grave
Em           
On that night
                     D      
When I drank the world's sin
                 Cmaj7 
So I could carry you in
               G 
And give you life
                  D  
I wanna give you life

               Em          
'Cause I'll be by your side
   C             
Wherever you fall
         G          
In the dead of night
    D            
Whenever you call
      Em              
And please don't fight
       C                      G 
These hands that are holding you
 D                    G 
My hands are holding you

 G                 Em            
Here at my side wherever you fall
        C              D     
In the dead of night whenever
      D 
You call
       G              
And please don't fight
        Em                    C 
These hands that are holdin' you
 D                    G 
My hands are holdin' you

       D     Em     
'Cause I, I love you
   C           D  
I want you to know
           Em     
That I, I love you
       C            D        
I'll never let you go, no, no

            Em          
And I'll be by your side
   C             
Wherever you fall
         G          
In the dead of night
    D            
Whenever you call
      Em              
And please don't fight
       C                      G 
These hands that are holding you
 D                    G 
My hands are holding you
Bridge:
D4 Cmaj7 G Em x2

            Em          
And I'll be by your side
   C             
Wherever you fall
         G          
In the dead of night
    D            
Whenever you call
      Em              
And please don't fight
       C                      G 
These hands that are holding you
 D                    Em C
My hands are holding you  
 G             
Here at my side
 D                    Em
My hands are holding you
Bridge:
D4 Cmaj7 G Em x2

Ending:
C G
More songs of Tenth Avenue North:
More songs from the category פופ:
Olivia Rodrigo - Happier
Tenth Avenue North - By your side
Dennis Lloyd - 27 Club