My Songs
My Songs
Hide Ads »

Scorpions - Always Somewhere

Author And Composer: Klaus Meine & Rudolf Schenker
Editor: TAB4U Staff
Undefined
To view Strummings you must be a logged in userSign up \ Login
Auto Scroll Add to my songs
Fmaj7*: xx3230

Intro: x5

  C                G               
e|-------------------3-----3-----0|
B|---1-----1-----0-----0-----0----|
G|-----0-----0-----------0-----0--|
D|-------2-----2------------------|
A|-3------------------------------|
E|-----------------3--------------|

  Fmaj7*   Em7     Am              
e|---0-------0---------0-----0----|
B|-----3-------3---------1--------|
G|-------2-------0---------2------|
D|-3-------2----------------------|
A|-----------------0-----------0-2|
E|--------------------------------|

Bridge:

  C                G               
e|-------------------3-----3-----0|
B|---1-----1-----0-----0-----0----|
G|-----0-----0-----------0-----0--|
D|-------2-----2------------------|
A|-3------------------------------|
E|-----------------3--------------|
  Am                               
e|-----0-----0-----0-----0--------|
B|-------1-----1-----1-----1------|
G|---------2-----2-----2-----2----|
D|--------------------------------|
A|-0---------------------------0-2|
E|--------------------------------|

 C          G  
Arrive at seven
    Fmaj7* Em7   Am   C
The place feels good   
            G        Am    C
No time to call you today   
              G    
Encores 'til eleven
    Fmaj7* Em7     C
Then Chinese food   
             G     Am    C
Back to the hotel again   

Bridge:
C G Fmaj7* Em7 Am
C G Am Am C        

C             G   
I call your number
    Fmaj7* Em7  Am   C
The line ain't free   
           G               Am  C
I like to tell you come to me   
           G        Fmaj7*
A night without you seems 
    Em7      Am    C
Like a lost dream   
                G             Am  C
Love, I can't tell you how I feel  

C         G       Am
Always somewhere    
                          F
Miss you where I've been   
          G               C     G C
I'll be back to love you again     

C         G       Am
Always somewhere    
                          F
Miss you where I've been   
          G               C     G
I'll be back to love you again   

Bridge: x4
C G Fmaj7* Em7 Am

C          G     Fmaj7* Em7  Am  C
Another morning   another place   
          G              Am   C
The only day off is far away   
           G      
But every city has
Fmaj7*  Em7     Am  C
Seen me in the end   
              G       Am  
And brings me to you again

C         G       Am
Always somewhere    
                          F
Miss you where I've been   
          G               C     G C
I'll be back to love you again     

C         G       Am
Always somewhere    
                          F
Miss you where I've been   
          G               C     G
I'll be back to love you again   
Bridge:
C Am C Em7 x2

Ending: x2
C G Fmaj7* Em7 Am
More songs of Scorpions:
Lorelei Follow Your Heart Rock You Like A Hurricane Wind Of Change Send Me An Angel Still Loving You You And I
More songs from the category Undefined:
Alanis Morissette - You Oughta Know
R.E.M. - Pop Song 89
AC/DC - Girls Got Rhythm
Maroon 5 - Harder To Breathe
AC/DC - Rock and Roll Damnation