Daddy Cool chords by Boney M.

Easy Version
                       
She's crazy like a fool
What about it Daddy Cool

Bridge: x4

  Fm              Eb               
e|--------------------------------|
B|--------------------------------|
G|--------------------------------|
D|-----------6-5------------------|
A|-8-8-8-8-8-----8-6-6-6-6-6---6-7|
E|---------------------------8----|

Bridge: x2

   Fm              Eb              
e|--------------------------------|
B|--------------------------------|
G|--------------------------------|
D|-----------6-5------------------|
A|-8-8-8-8-8-----8-6-6-6-6-6---6--|
E|---------------------------6---9|
   Cm              Fm              
e|--------------------------------|
B|--------------------------------|
G|--------------------------------|
D|--------------------------------|
A|-------------6---8-8-8-8-8-8---6|
E|-8-8-8-8-8-8---8-------------8--|

Fm                  Eb  Cm
She's crazy like a fool   
Cm                   Fm 
What about it Daddy Cool
Fm                Eb   Cm
I'm crazy like a fool    
Cm                   Fm 
What about it Daddy Cool
Fm            Eb  Cm
Daddy, Daddy Cool   
Cm            Fm 
Daddy, Daddy Cool
Fm            Eb  Cm
Daddy, Daddy Cool   
Cm            Fm 
Daddy, Daddy Cool

Bridge: x2

   Fm              Eb              
e|--------------------------------|
B|--------------------------------|
G|--------------------------------|
D|-----------6-5------------------|
A|-8-8-8-8-8-----8-6-6-6-6-6---6--|
E|---------------------------6---9|
   Cm              Fm              
e|--------------------------------|
B|--------------------------------|
G|--------------------------------|
D|--------------------------------|
A|-------------6---8-8-8-8-8-8---6|
E|-8-8-8-8-8-8---8-------------8--|

Fm                  Eb  Cm
She's crazy like a fool   
Cm                   Fm 
What about it Daddy Cool
Fm                Eb   Cm
I'm crazy like a fool    
Cm                   Fm 
What about it Daddy Cool
Fm            Eb  Cm
Daddy, Daddy Cool   
Cm            Fm 
Daddy, Daddy Cool
Fm            Eb  Cm
Daddy, Daddy Cool   
Cm            Fm 
Daddy, Daddy Cool

Bridge: x2

   Fm              Eb              
e|--------------------------------|
B|--------------------------------|
G|--------------------------------|
D|-----------6-5------------------|
A|-8-8-8-8-8-----8-6-6-6-6-6---6--|
E|---------------------------6---9|
   Cm              Fm              
e|--------------------------------|
B|--------------------------------|
G|--------------------------------|
D|--------------------------------|
A|-------------6---8-8-8-8-8-8---6|
E|-8-8-8-8-8-8---8-------------8--|

Eb       Db                 Fm
She's crazy about her daddy   
                    Eb
Oh she believes in him
 Eb                
She loves her daddy

Bridge: x2

   Fm              Eb              
e|--------------------------------|
B|--------------------------------|
G|--------------------------------|
D|-----------6-5------------------|
A|-8-8-8-8-8-----8-6-6-6-6-6---6--|
E|---------------------------6---9|
   Cm              Fm              
e|--------------------------------|
B|--------------------------------|
G|--------------------------------|
D|--------------------------------|
A|-------------6---8-8-8-8-8-8---6|
E|-8-8-8-8-8-8---8-------------8--|

Bridge: x4

  Fm              Eb               
e|--------------------------------|
B|--------------------------------|
G|--------------------------------|
D|-----------6-5------------------|
A|-8-8-8-8-8-----8-6-6-6-6-6---6-7|
E|---------------------------8----|
Bridge:
Cm Fm Fm Fm x4

Fm                  Eb  Cm
She's crazy like a fool   
Cm                   Fm 
What about it Daddy Cool
Fm                Eb   Cm
I'm crazy like a fool    
Cm                   Fm 
What about it Daddy Cool
Fm            Eb  Cm
Daddy, Daddy Cool   
Cm            Fm 
Daddy, Daddy Cool
Fm            Eb  Cm
Daddy, Daddy Cool   
Cm            Fm 
Daddy, Daddy Cool
Bridge:
Cm Fm Fm Fm x4

Ending:
Fm Fm Cm Fm x4
Boney M.
Sunny
Familiar Songs
Queen - Under Pressure
Adele - Someone Like You
John Lennon - Give peace a chance
The Beach Boys - I Get Around
Coldplay - Clocks