Real Love chords by The Beatles


Pop
No Easy Version
Am6: x02212

Intro:

  Em              B7          Em
e|-7--------7--8-----7------7--|
B|-----8-10-------7-----10-----|
G|---9-------------------------|
D|-----------------------------|
A|-----------------------------|
E|-----------------------------|

                B7       
e|--------7--8--7---7---|
B|---8-10---------7---7-|
G|-9--------------------|
D|----------------------|
A|----------------------|
E|----------------------|

E                        Abm   
All my little plans and schemes
C#m                             B5+
Lost like some forgotten dreams    
A                            F#m  B
Seems that all I really was doing  
                E    A  E  A
Was waiting for you         

E                          Abm 
Just like little girls and boys
 C#m                            B5+
Playing with their little toys     
A                               F#m     B
Seems like all they really were doing    
                E    A  E  A
Was waiting for love        

E                  Am6 
Don't need to be  alone
E                Am6   E
No need to be   alone   
E    C#m      A       B    E
It's real love,  it's real  
         C#m   A         B    Em
Yes it's real love, it's real   

Bridge:

  Em              B7          Em
e|-7--------7--8-----7------7--|
B|-----8-10-------7-----10-----|
G|---9-------------------------|
D|-----------------------------|
A|-----------------------------|
E|-----------------------------|

                B7       
e|--------7--8--7---7---|
B|---8-10---------7---7-|
G|-9--------------------|
D|----------------------|
A|----------------------|
E|----------------------|

 E                    Abm 
From this moment on I know
 C#m                          B5+
Exactly where my life will go    
A                            F#m     B
Seems that all I really was doing     
                E    A  E  A
Was waiting for love        

E                  Am6 
Don't need to be afraid
E               Am6     E
No need to be afraid     
E    C#m       A      B    E
It's real love,  it's real  
         C#m   A          B    F#m
Yes it's real  love, it's real    

Bridge:
F#m C# F#m B4 B

E                          Abm 
Thought I'd been in love before
    C#m                        B5+
But in my heart, I wanted more    
A                            F#m     B
Seems like all I really was doing     
                E    A  E  A
Was waiting for you         
Bridge:
E C#m Em B7 x2

E                 Am6 
Don't need to be alone
E                 Am6     E
Don't need to be alone     
E    C#m       A           B    E
It's real love,   yes it's real  
     C#m    A          B    E
It's real   love, it's real  
E        C#m    A          B    E
Yes it's real   love, it's real  
     C#m    A          B    E
It's real   love, it's real  
E        C#m     A         B    E
Yes it's real   love, it's real  

Ending:
Em B7 E C#m x2
The Beatles
Being For The Benefit Of Mr. KiteStrawberry Fields ForeverHere Comes The SunCan't Buy Me LoveEleanor RigbyLove me doThis boyAll Together NowA Day In The LifeDon't Let Me Down
Pop
The Weeknd - Save Your Tears
Chuck Berry - You Never Can Tell
Scorpions - Lorelei
Chance Peña - Bleeding Out
JVKE - Golden hour