My Songs
My Songs
Hide Commercials
Did you know? No 'did you know', Add an info for this song
Jimi Hendrix - Little Wing Chords
Ranking: 10 Sign Up and Rank!

Jimi Hendrix - Little Wing

Reset
size
Intro:

e|-x-12\--------------------------|
B|-x-12\---------------------5-5\-|
G|-x-12\------x-x------0-----5-5\-|
D|------------x-x--------5---5-7\-|
A|------------x-x--0h2---5h7------|
E|--------0-----------------------|

e|------3h5p3-3--------------------|
B|------3-----3---3----3--3-3------|
G|----0---------0-4h5--5--4-5--4---|
D|-------------------------------5-|
A|---------------------------------|
E|-/3------------------------------|

e|-----------------------------------|
B|-------------5---5-----------------|
G|---------5---5h7-5-----------------|
D|-------------------5s7--5----------|
A|-----5-7---7------------5h7p5------|
E|-5----------------------------5s7\-|

e|---------------------------------|
B|-----8h10p8----------------------|
G|-----7------7------7-7-7--7--7-7-|
D|--------------9----7-7-9--7--7-7-|
A|--------------7-7-10--------10-7-|
E|-0-------------------------------|

e|-------9---10-9----7-------------|
B|-------7---7--7-10-7-------------|
G|---------------------7-------7---|
D|----9----------------9-------8---|
A|-----------------------------8---|
E|-7-----------------------6-------|

e|----------------------------|
B|----------------------------|
G|---5--5-5-5------5-5-5------|
D|---7--9-7-5-5-5--5-7-5------|
A|------------8-7-------------|
E|-5---------------------5h7\-|

e|------5s7-5---5s1-----------------------|
B|------3s5-3---3-3---------------1-3p1---|
G|---0----------0-0-----------2-2-2-2-----|
D|------5s7-5---5s3-----------2-2---------|
A|-----------------------2s3------------5-|
E|-3-----------------1--------------------|

e|------------------------------------12\-|
B|-------------7---7-7----------------12\-|
G|-----------7-7---7-7--7--7--7-------12\-|
D|---7---7---7-7h9-7-7--7--7--7-----------|
A|-5---5---5-----------10--7--7-----------|
E|----------------------------10----------|

            Em     
Well, she's walking
             G    
Through the clouds
       Am         
With a circus mind
               Em     
That's running    wild
Bm                    
Butterflies and zebras
    Bb        Am     C    G    
And moonbeams    and fairytales
       F                         C
That's all she ever thinks about  
                D   
Riding with the wind

         Em                  G 
When I'm sad,   she comes to me
       Am             
With a thousand smiles
                Em      Bm
She gives to me    free   
Bm                    
It's alright, she says
Bb            Am
It's alright    
C                  G           F  C
Take anything you want from me     
D       
Anything

Bridge:

           Em                          G  
e|-12~\--------10b12--10b12-10-7--7h10p7-|
B|-12~\----------------------------------|
G|-12~\----------------------------------|
D|---------------------------------------|
A|---------------------------------------|
E|---------12\---------------------------|

        G              Am
Fly on,   little wing    

Bridge:
Am Em Bm Bb Am C F E C D D Em
Bridge:
Am Em Em G x2

Em                 
Yeah yeah yeah yeah
G           Am  Em
Little wing       
Bridge:
Am Em Em G x2

Ending:
Em G Am Em x2
If you like the way the song is edited, help us grow with your like please
More songs of Jimi Hendrix:
Fire Angel Hey Joe Purple Haze
More songs from the category שירים עם סולו גיטרה:
ברי סחרוף ורמי פורטיס - מועדון החולמים
רמי פורטיס - את לא
חמי רודנר ויהודית רביץ - חדרים שבלב
ג'ירפות - גג
מוניקה סקס - הקונפורמיסט