My Songs
My Songs
Hide Ads »

Smokie - I'll Meet You at Midnight


Editor: TAB4U Staff
Rock Guitar solo
To view Strummings you must be a logged in userSign up \ Login
Auto Scroll Easy Version Add song
Intro:


Click for other display
E5 
F#m                                  
e|-------------------------------------|
B|--------2----------------3p2p0---0h2-|
G|----2h4-----2p1------1-2-------2-----|
D|----------------4--------------------|
A|-------------------------------------|
E|-------------------------------------|

         

Click for other display
E5  
F#m  
e|-----0---------|
B|-------2---4s5-|
G|---1-----2-----|
D|-4-------------|
A|---------------|
E|---------------|

F#m                     
Bm           
A summer evening on Les Champs Elyses
  
Bm               
A secret rendezvous
      
F#m             

Click for other display
E5 
F#m
They planned for days       
F#m                 
Bm         
I see faces in the crowded cafe
Bm                         
F#m         

Click for other display
E5 
F#m
A sound of Laughter as the music plays       

Bridge:

                 
F#m               
Bm 
e|-----------------------------------|
B|-2-1-2-3-2-1-2-----2-1-2-3-2-1-2---|
G|---------------------------------4-|
D|---------------4-------------------|
A|-----------------------------------|
E|-----------------------------------|

                 
Bm                
F#m
e|-------------2---------------------|
B|-------2-----------------2---------|
G|-4-3-4---4-3---4---4-3-4---4-2-1---|
D|---------------------------------4-|
A|-----------------------------------|
E|-----------------------------------|

           
F#m
e|---------2-|
B|-------2---|
G|---2h4-----|
D|-4---------|
A|-----------|
E|-----------|

        
F#m                    
Bm        
Jeanne-Claude's student at the University
                       
F#m       
Louise-Marie is just a world away
F#m                          
You recall the night they met
    
Bm                
Was warm with laughter
                           
F#m         
E
The words and music as she turned away  

E                
F#m       
E
I'll meet you at midnight   
              
F#m    
E
Under the moonlight   
E                
F#m     
I'll meet you at midnight
        
F#m          
Oh, but Jeanne-Claude
                  
Bm         
F#m
Louise-Marie will never be      

Bridge:
F#m 
F#m 
F#m 
F#m

F#m                         
Bm            
Each cigarette will light a thousand faces
                            
F#m           
The shade is passing like a thousand years
                          
Bm          
Midnight was turning into empty spaces
                        
F#m          
E
The sound of laughter'd disappeared   

E                
F#m       
E
I'll meet you at midnight   
              
F#m    
E
Under the moonlight   
E                
F#m     
I'll meet you at midnight
        
F#m          
Oh, but Jeanne-Claude
                  
Bm         
F#m
Louise-Marie will never be      

Bridge:
F#m 
F#m 
F#m 
F#m

  
F#m                   
Bm           
A summer morning on Les Champs Elyses
    
Bm                     
F#m      
The entertainment in the street cafe
                                
Bm          
The sunlight melting through an open doorway
                            
F#m        
E
Jeanne-Claude has left some other day   
Bridge:
F#m Bm E5 E5 x2

 
E                
F#m       
E
(I'll meet you at midnight   
              
F#m    
E
Under the moonlight   
E                
F#m       
E
I'll meet you at midnight)  
E                
F#m       
E
I'll meet you at midnight   
              
F#m    
E
Under the moonlight   
E                
F#m     
I'll meet you at midnight
        
F#m          
Oh, but Jeanne-Claude
                  
Bm      
Louise-Marie will never be

Ending:
E5 E5 F#m Bm x2
Smokie
Living Next Door To Alice
Rock
OneRepublic - I Lived
Avenged Sevenfold - So Far Away
Nirvana - Pennyroyal Tea
Green day - Bascet Case
The Beatles - Twist And Shout
I'll Meet You at Midnight Replies
Login To reply: Sign up \ Login