Hide Commercials
Did you know?
No 'did you know', Add an info for this song
Mariah Carey - My All Chords
Ranking: 6.02 Sign Up and Rank!

Mariah Carey - My All



Category: Pop | Familiar Songs | Love Songs
Intro:

                   Cm7  D7          Gm     
e|----------------------------------------|
B|----------------------------------------|
G|--------12-----10-----------------------|
D|-12-12x-----12-----13------12-----10----|
A|------------------------12-----12----13-|
E|----------------------------------------|

               Cm7  D7           Gm         
e|-----------------------------------------|
B|-----------------------------------------|
G|----12-----10----------------------------|
D|-12-----12-----13----12------10-----10-9-|
A|------------------------12-------12------|
E|-----------------------------------------|

              Cm7    D7
I am thinking of you   
D7              Gm              
In my sleepless solitude tonight
                 Cm7       D7
If it's wrong to love you    
D7                 Gm                   
Then my heart just won't let me be right
             Gm/F      Ebmaj7
'Cause I've drowned in you   
                   D4   
And I won't pull through
        D         Gm  
Without you by my side

            Cm7      D7  
I'd give my all   to have
     Gm       Gm/F       Ebmaj7
Just one more night with you   
            Cm7       F7  
I'd risk my life   to feel
     Bbmaj7       Ebmaj7
Your body next to mine  
                  Am7b5  Ab
'Cause I can't go on       
Ab            Gm     Gm/F   Em7b5
Living in the memory of our song 
            Cm7            D7       Gm   
I'd give my all   for your love   tonight

             Cm7     D7
Baby can you feel me   
D7            Gm                  
Imagining I'm looking in your eyes
               Cm7     D7
I can see you clearly    
D7         Gm                
Vividly emblazoned in my mind
        Gm/F      Ebmaj7
And yet you're so far   
                D4 
Like a distant star
      D          Gm   
I'm wishing on tonight
            Cm7      D7  
I'd give my all   to have
     Gm       Gm/F       Ebmaj7
Just one more night with you   
            Cm7       F7  
I'd risk my life   to feel
     Bbmaj7       Ebmaj7
Your body next to mine  
                  Am7b5  Ab
'Cause I can't go on       
Ab            Gm     Gm/F   Em7b5
Living in the memory of our song 
            Cm7            D7       Gm   
I'd give my all   for your love   tonight

Bridge:

                   Cm7  D7          Gm     
e|----------------------------------------|
B|----------------------------------------|
G|--------12-----10-----------------------|
D|-12-12x-----12-----13------12-----10----|
A|------------------------12-----12----13-|
E|----------------------------------------|

                       Cm7  D7 
e|----------------------------|
B|----------------------------|
G|--------------12-----10-----|
D|----------12------12----13--|
A|-12-13-10-------------------|
E|----------------------------|

               Gm                 
e|-------------------------------|
B|-------------------------------|
G|-------------------------------|
D|-----12------10----------------|
A|--12-----12-----13--12--13--10-|
E|-------------------------------|

Bridge:
Gm Gm/F Ebmaj7 D7 Gm

            Cm7      D7  
I'd give my all   to have
     Gm       Gm/F       Ebmaj7
Just one more night with you   
            Cm7       F7  
I'd risk my life   to feel
     Bbmaj7       Ebmaj7
Your body next to mine  
                  Am7b5  Ab
'Cause I can't go on       
Ab            Gm     Gm/F   Em7b5
Living in the memory of our song 
            Cm7            D7  
I'd give my all   for your love
  Gm   Gm/F Ebmaj7
Tonight           
        Cm7             D7  
Give my all    for your love
  Gm   
Tonight

Ending:

              Cm7    D7          Gm
e|--------------------------------|
B|--------------------------------|
G|-----12-----10------------------|
D|-12------12-----13-------12-----|
A|----------------------12-----12-|
E|--------------------------------|


If you like the way the song is edited, help us grow with your like please
More songs of Mariah Carey:
Without You Hero All I Want For Christmas Is You We Belong Together Touch My Body
More songs from the category Pop:
Ricky Martin - She Bangs
Spice Girls - Wannabe
ABBA - The winner takes it all
Eminem and Rihanna - The Monster
Hanson - If Only