Hide Commercials
Did you know?
No 'did you know', Add an info for this song
Mike Oldfield and Maggie Reilly - Moonlight Shadow Chords
Ranking: 5.86 Sign Up and Rank!
Intro:

   E                B         
e|---------------------------|
B|--------9------------------|
G|---9-11---11-9---------8---|
D|-9-------------11-9-11-----|
A|-------------------------9-|
E|---------------------------|

          C#m      A       B      
e|-------------------------------|
B|-------------------------------|
G|------8--9-9-8-8----8-9-11-----|
D|-9h11------------11----------9-|
A|-------------------------------|
E|-------------------------------|

    C#m                 A      
The last  that ever she saw him
B                 E         B     
Carried away by a moonlight shadow
   C#m                   A      
He passed on worried and warning
B                 E         B     
Carried away by a moonlight shadow
E                     B             
Lost in a riddle that Saturday night
C#m  A          B         
Far away on the other side
       E                   
He was caught in the middle
     B              
Of a desperate fight
        C#m           A             B    
And she couldn't find how to push through

     C#m                      A      
The trees that whisper in the evening
B                 E         B     
Carried away by a moonlight shadow
       C#m                 A      
Sing a song of sorrow and grieving
B                 E         B     
Carried away by a moonlight shadow
E                      B             
All she saw was a silhouette of a gun
C#m  A          B         
Far away on the other side
       E                   B             
He was shot six times by a man on the run
        C#m           A             B    
And she couldn't find how to push through

B              
I stay   I pray
      E       A      B       
I see you  in heaven far away
B              
I stay   I pray
      E        A      B        
I see you   in heaven   one day

C#m              A      
Four a.m. in the morning
B                  E         B     
Carried away  by a moonlight shadow
  C#m                   A      
I watched   your vision forming
B                   E         B     
Carried away   by a moonlight shadow
 E                     B            
Stars move slowly in a silvery light
C#m  A          B         
Far away on the other side
         E               B            
Will you come to talk to me this night
        C#m           A             B    
But she couldn't find how to push through

B              
I stay   I pray
      E       A      B       
I see you  in heaven far away
B              
I stay   I pray
      E        A      B        
I see you   in heaven   one day

Solo:

     C#m                 A            
E|------------------------------9----|
B|--------9-10-9---------------------|
G|------9--------9------------9----9-|
D|-9s11------------11-9----11--------|
A|----------------------12-----------|
E|-----------------------------------|

          B                       E        
E|-11h12-14-14-14-12----------------------|
B|-------12-12-12----12----------------12-|
G|----------------------11-13h14----13----|
D|-------------------------------14-------|
A|----------------------------------------|
E|----------------------------------------|

       B           C#m                 A     
e|------------------------------------------|
B|----------12----------9-10-9--------------|
G|-11----11----11-----9--------9------------|
D|----13-----------11------------11-9----11-|
A|------------------------------------12----|
E|------------------------------------------|

                  B                       
e|---9-----11h12-14-14-14-12-------------|
B|---------------12-12-12----12----------|
G|-9-----9----------------------11-13h14-|
D|---------------------------------------|
A|---------------------------------------|
E|---------------------------------------|

   E                  B                
e|------------------------------------|
B|-12----12----12----12-----12---12---|
G|-11b13-11b13-11b13-11b13--11-9-11-9-|
D|------------------------------------|
A|------------------------------------|
E|------------------------------------|

   E                                       
e|----------------------------------------|
B|-12----12----12----12-----12---12-------|
G|-11b13-11b13-11b13-11b13--11-9-11b13b11-|
D|----------------------------------------|
A|----------------------------------------|
E|----------------------------------------|

   B                               
e|--------------------------------|
B|--------12----12---12-----------|
G|-9-11-9-11b13b11-9-11b13--13-11-|
D|--------------------------------|
A|--------------------------------|
E|--------------------------------|

C#m  A          B         
Far away on the other side

Solo:
E B C#m A B
C#m A B E B C#m A B E B

E                         B               
Caught in the middle of a hundred and five

Bridge:
C#m A B

    E                       B            
The night was heavy but the air was alive
    C#m           A             B     C#m A
She couldn't find how to push through      
B                 E         B      C#m A
Carried away by a moonlight shadow      
B                 E         B      E B
Carried away by a moonlight shadow    
C#m  A          B          E
Far away on the other side  

If you like the way the song is edited, help us grow with your like please
More songs of Mike Oldfield:
More songs from the category Rock:
David Bowie - Lazarus
Neil Young - Cinnamon Girl
Prince - Purple Rain
U2 - In The Name Of Love
Queen - Bohemian Rhapsody