Hide Commercials
Did you know?
No 'did you know', Add an info for this song
Journey - Don't Stop Believin' Chords
Ranking: 5.9 Sign Up and Rank!

Journey - Don't Stop Believin'



Intro:

   E        B       C#m      A         E  
E|---------------------------------------|
B|---------------------------------------|
G|---------------------------------------|
D|----------------1------1-2------1-2----|
A|----------2---4---4--------0-----------|
E|-0----2-4----------------------------0-|

       B       Abm      A         E  
E|----------------------------------|
B|----------------------------------|
G|----------------------------------|
D|-----------1------6---------1-2---|
A|-----2---4------------0-----------|
E|-2-4---------4------4-----------0-|

E       B              C#m
Just a small town girl    
            A             E
Livin' in a lonely world   
             B             
She took the midnight train
      Abm      A   E
Goin' anywhere      
E      B         C#m
Just a city boy     
                   A              E
Born and raised in south Detroit   
            B             
He took the midnight train
      Abm      A
Goin' anywhere  

Bridge:
E B C#m A E B Abm A E

E              B         C#m
A singer in a smoky room    
                    A             E
A smell of wine and cheap perfume  
                     B              
For a smile they can share the night
        Abm            A         
It goes on and on, and on, and on

  A                E
Strangers  waiting  
E                        
Up and down the boulevard
      A                          E    
Their shadows   searching in the night
  A                  E
Streetlights, people  
E                          
Living just to find emotion
A                         B    E B E A
Hiding   somewhere in the night       

Bridge:

   E        B       C#m      A         E  
E|---------------------------------------|
B|---------------------------------------|
G|---------------------------------------|
D|----------------1------1-2------1-2----|
A|----------2---4---4--------0-----------|
E|-0----2-4----------------------------0-|

E               B           C#m
Working hard to get my fill    
          A               E
Everybody wants a thrill   
E                  B            
Payin' anything to roll the dice
     Abm      A     E
Just one more time   
E              B                 C#m
Some will win,    some will lose    
                  A              E
Some were born to sing the blues  
              B         
Oh, the movie never ends
        Abm            A         
It goes on and on, and on, and on

  A                E
Strangers  waiting  
E                        
Up and down the boulevard
      A                          E    
Their shadows   searching in the night
  A                  E
Streetlights, people  
E                          
Living just to find emotion
A                         B     E B E A
Hiding   somewhere in the night        

Solo:

                   E               B         
E|-------------14-16b17--16~---14-16b17--16~|
B|----14-16-17------------------------------|
G|-16---------------------------------------|
D|------------------------------------------|
A|------------------------------------------|
E|------------------------------------------|

C#m                A                   E    
E|-16b17b16-14-----------------------16b17-|
B|-------------17-16---17-14---------------|
G|----------------------------16-14--------|
D|-----------------------------------------|
A|-----------------------------------------|
E|-----------------------------------------|

                 B               Abm       A   
E|-16-16~--14-16b17---16--14-----19~--23--24~\|
B|---------------------------17---------------|
G|--------------------------------------------|
D|--------------------------------------------|
A|--------------------------------------------|
E|--------------------------------------------|

E              B       C#m
Don't stop   believin'    
               A      
Hold on to the feelin'
  E             B       Abm  A
Streetlights,   people        
E              B       C#m
Don't stop   believin'    
           A
Hold on     
  E             B       Abm  A
Streetlights,   people        
E              B       C#m
Don't stop   believin'    
               A      
Hold on to the feelin'
  E             B       Abm  A
Streetlights,   people        


If you like the way the song is edited, help us grow with your like please


More songs of Journey:
More songs from the category Rock:
Aerosmith - Janie's Got A Gun
Neil Young - Cinnamon Girl
Jack Johnson - If I Had Eyes
Emerson, Lake & Palmer - Lucky Man
The Beatles - Love me do