Hide Commercials
Did you know?
No 'did you know', Add an info for this song
Ranking: 5.96 Sign Up and Rank!
Intro whistling: x2

   F                    Dm          C           
e|-10--10-10-10---8--8----------8--------------|
B|----------------------10--10-----10--10-10-10|
G|---------------------------------------------|
D|---------------------------------------------|
A|---------------------------------------------|
E|---------------------------------------------|

        Am   F               Dm           Am
e|-----------------------------------------|
B|-8--8------------------------------------|
G|------9----9--9-9-9--7--7----------------|
D|---------------------------10--10--7--10-|
A|-----------------------------------------|
E|-----------------------------------------|

F                      Dm        
If i told you things i did before
C                      Am
Told you how i used to be
F                       Dm            Am
Would you go along with someone like me 
F                    Dm           
If you knew my story word for word
C                  Am
Had all of my history
F                       Dm            Am
Would you go along with someone like me 

        F               Dm   
I did before and had my share
          C          Am
It didn't lead nowhere 
F                     Dm             C Am
I would go along with someone like you   

           F               Dm 
It doesn't matter what you did
             C            Am
Who you were hanging with   
F                         Dm 
We could stick around and see
              Am  
This night through

                            F          
And we don't care about the young folks
G                C          
Talkin' bout the young style
                            F        
And we don't care about the old folks
F                           C  
Talkin' 'bout the old style too
                            F        
And we don't care about our own folks
G                 C        
Talkin' 'bout our own stuff
                     F      
All we care about is talking
Dm                  Am 
Talking only me and you

Bridge:

   F                    Dm          C           
e|-10--10-10-10---8--8----------8--------------|
B|----------------------10--10-----10--10-10-10|
G|---------------------------------------------|
D|---------------------------------------------|
A|---------------------------------------------|
E|---------------------------------------------|

        Am   F               Dm           Am
e|-----------------------------------------|
B|-8--8------------------------------------|
G|------9----9--9-9-9--7--7----------------|
D|---------------------------10--10--7--10-|
A|-----------------------------------------|
E|-----------------------------------------|

F                       Dm           
Usually when things has gone this far
C                   Am  
People tend to disappear
F                        Dm            Am
No one would surprise me unless you do   
F                            Dm      
I can tell there's something goin' on
C                 Am   
Hours seem to disappear
F                   Dm             Am 
Everyone is leaving i'm still with you

           F              Dm
It doesn't matter what we do
             C        Am
Where we are going to   
F                       Dm 
We can stick around and see
                  Am
This night through  

                            F          
And we don't care about the young folks
G                C          
Talkin' bout the young style
                            F        
And we don't care about the old folks
F                           C  
Talkin' 'bout the old style too
                            F        
And we don't care about our own folks
G                 C        
Talkin' 'bout our own stuff
                     F      
All we care about is talking
Dm                  Am 
Talking only me and you
                            F          
And we don't care about the young folks
G                C          
Talkin' bout the young style
                            F        
And we don't care about the old folks
F                           C  
Talkin' 'bout the old style too
                            F        
And we don't care about our own folks
G                 C        
Talkin' 'bout our own stuff
                     F      
All we care about is talking
Dm                  Am 
Talking only me and you
                    F   Dm C Am F Dm Am
Talking only me and you                
                    F   Dm C Am F Dm C
Talking only me and you               
Am                  F   Dm C Am  F Dm C Am
Talking only me and you                   


If you like the way the song is edited, help us grow with your like please
More songs of Peter Bjorn and John:
More songs from the category Rock:
Eurythmics - Sweet Dreams
Eddy Grant - Gimme Hope Jo'anna
Urge Overkill - Girl, You'll Be A Woman Soon
Pink floyd - Is There Anybody Out There
Alan Parsons Project - Eye In The Sky