Hide Ads »

My My, Hey Hey (Out Of The Blue) chords by Neil Young


Guitar soloQuiet songs
Easy Version
Intro: x2

   Gm        F        Ebmaj7
e|-------------------------|
B|-------------------------|
G|-------------------------|
D|-------------------------|
A|-------0-1-3--0----------|
E|-3---3----------3-1-3----|

   Gm        F           Ebmaj7  Gm
e|--------------------------------|
B|--------------------------------|
G|--------------------------------|
D|--------------------------------|
A|-------0-1-3--3-3h5-3-1-3-------|
E|-3---3--------------------3-----|

Gm F       Ebmaj7  Gm
My my, hey hey       
Gm       F               Ebmaj7  Bb
Rock and roll is here to stay      
               Dm7      Gm
It's better to burn out   
              Eb   Gm
Than to fade away    
Gm F       Ebmaj7  Gm
My my, hey hey       

Bridge:

   Gm        F        Ebmaj7  Gm
e|-----------------------------|
B|-----------------------------|
G|-----------------------------|
D|-----------------------------|
A|-------0-1-3--0--------------|
E|-3---3----------3-1-3--------|

Gm          F                 Ebmaj7  Gm
Out of the blue  and into the black     
              F   
They give you this
                Ebmaj7  Bb
But you pay for that      
                Dm7 
And once you're gone
        Gm         Eb  
You can never come back
            Gm             F  
When you're    out of the blue
             Ebmaj7  Gm
And into the black     

Bridge:

   Gm        F        Ebmaj7  Gm
e|-----------------------------|
B|-----------------------------|
G|-----------------------------|
D|-----------------------------|
A|-------0-1-3--0--------------|
E|-3---3----------3-1-3--------|

   Gm        F           Ebmaj7  Bb Dm7
e|------------------------------------|
B|------------------------------------|
G|------------------------------------|
D|------------------------------------|
A|-------0-1-3--3-3h5-3-1-3-----------|
E|-3---3--------------------3---------|

   Gm Eb Gm         F        Ebmaj7  Gm
e|------------------------------------|
B|------------------------------------|
G|------------------------------------|
D|------------------------------------|
A|--------------0-1-3--0--------------|
E|--------3---3----------3-1-3--------|

Gm          F                   Ebmaj7  Gm
The king is gone but he's not forgotten   
             F                Ebmaj7  Bb
This is the story of a Johnny Rotten    
               Dm7      Gm
It's better to burn out   
              Eb    Gm
Than it is to rust    
            F                     Ebmaj7  Gm
The king is gone  but he's not forgotten    

Bridge:

   Gm        F        Ebmaj7  Gm
e|-----------------------------|
B|-----------------------------|
G|-----------------------------|
D|-----------------------------|
A|-------0-1-3--0--------------|
E|-3---3----------3-1-3--------|

Gm  F       Ebmaj7  Gm
Hey hey, my my        
Gm       F              Ebmaj7  Bb
Rock and roll can never die       
                    Dm7       Gm
There's more to the picture     
               Eb    Gm7
Than meets the eye      
Gm7 F       Ebmaj7
Hey hey, my my    

Bridge:
Gm7 F Ebmaj7 Gm F Ebmaj7 Bb Dm Gm Eb Bb

Gm7 F       Ebmaj7
Hey hey, my my    

Bridge:
Gm Gm Gm Gm x4


Ending:
Gm Gm Gm Gm x4
Neil Young
HelplessOld ManOhioHarvest MoonSouthern ManHeart Of Goldlook out for my loveRockin' In The Free WorldFour Strong WindsCinnamon Girl
Guitar solo
Red Hot Chili Peppers - Under the bridge
Kansas - Dust In The Wind
Little Richard - Tutti Frutti
Jack Johnson - Sexy Plexi
U2 - Sunday Bloody Sunday
My My, Hey Hey (Out Of The Blue) Replies
Login To reply - Sign up \ Login