Hide Commercials
Did you know?
No 'did you know', Add an info for this song
Pearl Jam - Yellow Ledbetter Chords
Ranking: 6.04 Sign Up and Rank!

Pearl Jam - Yellow Ledbetter



Category: Rock | Guitar solo
Intro:

e|---------------------------------9p7-----|
B|---------5----5h7p5------------------7---|
G|-----4---4----6-----6\-----------------8-|
D|-----4h6---------------------------------|
A|-------------------------0s1s2-----------|
E|-0---------------------------------------|

e|-7-9-----7p5---5-------5h7p5-------|
B|-7-7----5------5-------------5-----|
G|-------6-------6h7p6-----------6---|
D|-----------------------------------|
A|-----------------------------------|
E|---------------------------------0-|

e|-12s14--12---------------------------------|
B|-12s14--12--14--------------5---5h7-5------|
G|---------------11\------4---4---6---6-6----|
D|------------------------4h6----------------|
A|-----------------------------------------2-|
E|--------------------0----------------------|

e|-9p7--9--7---9p7--9----7p5--5---5------5---|
B|-7----7--7---7----7----5----5---5----5-----|
G|----------------------------6p7----6-----6-|
D|-------------------------------------------|
A|-------------------------------------------|
E|-------------------------------------------|

e|------12/---------|
B|------12/---------|
G|------------------|
D|------------------|
A|------------------|
E|-0---------12\--0-|

E               B                    A
Unsealed   on a porch a letter   sat  
                         E              
Then you said  I want to leave it  again

E             
Once I saw him
     B                         A
On a beach of  weathered  sand  
A                           E              
And on the sand   I want to leave it  again

E                     B               
On a weekend    and I wish it all away
         A                     
And they called and I said that
  A                        E              
I want  what I said  and I call out again.

E                      B                  A  
And the reason  oughta leave her  calm I know
  A                      
I said I know what I wear
       E             
That a box or the bag

   E                  B    
Oh yeah   can you see them?
           A    
Out on the porch
                    E   
Ahh, but they don't wave
  E                     B             
I see them   round the front way, yeah
       A              A4
And I know and I know   
                 E                  
I don't want to stay   (make me cry)

Solo:
E B A E E B A E E B A E E B A

A                    E             
I don't know there's something else
E                   B                A
On the frontline unaware  and I said  
A                            
I don't, I don't know whether
          E               
I was the boxer or the bag
   E                  B    
Oh yeah   can you see them?
           A     A4
Out on the porch   
                   E   
Ah, but they don't wave

  E                       B             
I see them  round on the front way, yeah
      A              
And I know and I know
                 E   B  A
I don't want to stay     
                 E   B  A A/Ab
I don't want to stay          
        A/F#     E   B  A
I don't want to stay     
                 E   B  A
I don't want to stay     

Bridge:
Ebdim E B Ebdim E A Ebdim E B Ebdim E A E 

Repeat Intro


If you like the way the song is edited, help us grow with your like please


More songs of Pearl Jam:
Why Go Black Last Kiss Once Alive Jeremy
More songs from the category Rock:
Staind - Outside
Pearl Jam - Once
Mark Ronson - Somebody To Love Me
Nirvana - Smells Like Teen Spirit
Eddy Grant - Gimme Hope Jo'anna