Hide Ads »

Cinnamon Girl chords by Neil Young


Rock
No Easy Version
Intro: x4

   D                C     F G     
e|-------------------------------|
B|-------------------------------|
G|-------------------------------|
D|----------------0--------------|
A|-3-5-3-5---3-5----3-2-0-------0|
E|------------------------1-3----|

D                    Am           
I wanna live  with a cinnamon girl
C                     G              
I could be happy  the rest of my life
       F  G     D    C Am
With a cinnamon girl     

   D                     Am              
A dreamer of pictures  I run in the night
    C                G                    
You see us together  chasing the moonlight
   F G      D     C Am
My cinnamon girl      

Bridge: x4

   D                C     F G     
e|-------------------------------|
B|-------------------------------|
G|-------------------------------|
D|----------------0--------------|
A|-3-5-3-5---3-5----3-2-0-------0|
E|------------------------1-3----|

D                   Am             
Ten silver saxes  a bass with a bow
     C                   G                  
The drummer relaxes  and waits between shows
        F G      D    C Am
For his cinnamon girl     

   D                     Am              
A dreamer of pictures  I run in the night
    C                G                    
You see us together  chasing the moonlight
   F G      D     C Am
My cinnamon girl      

Bridge: x4

   D                C     F G     
e|-------------------------------|
B|-------------------------------|
G|-------------------------------|
D|----------------0--------------|
A|-3-5-3-5---3-5----3-2-0-------0|
E|------------------------1-3----|
Bridge:
C F D D x4

C                   
Pa sent me money now
          C              
I'm gonna make it somehow
               G     
I need another chance
                           Am   
You see your baby loves to dance
         A            
Yeah...  yeah...  yeah
Bridge:
C F D D x4

Ending:
D Am C G F G D C Am
D Am C G F G D C Am D
Neil Young
Harvest MoonSouthern ManHelplessOhioOld ManMy My, Hey Hey (Out Of The Blue)Four Strong WindsHeart Of GoldRockin' In The Free Worldlook out for my love
Rock
Geva Alon - Come Race Me
R.E.M. - Supernatural Superserious
The Beatles - We Can Work It Out
The Beatles - Girl
Scorpions - Lorelei
Cinnamon Girl Replies
Login To reply - Sign up \ Login