Hide Commercials
Did you know?
No 'did you know', Add an info for this song
Sia and David Guetta - Titanium Chords
Ranking: 6.2 Sign Up and Rank!

Sia and David Guetta - Titanium



Category: Guitar solo | Dance
Intro:

e|----------------------------------|
B|---------8----------------6-------|
G|-----8-------8--------8-------8---|
D|---8---8---8---8----8---8---8---8-|
A|-6----------------5---------------|
E|----------------------------------|

e|---------------------------------------------|
B|------------8----------------------8---------|
G|------10---------10----------10---------10---|
D|---10----10---10----10----10----10---10----10|
A|-----------------------10--------------------|
E|-8-------------------------------------------|

e|----------------------------------|
B|---------8----------------6-------|
G|-----8-------8--------8-------8---|
D|---8---8---8---8----8---8---8---8-|
A|-6----------------5---------------|
E|----------------------------------|

e|------------------------------------------|
B|------------8-------9----8----------8-----|
G|------10---------10-----------10--------8-|
D|---10----10---10------10---10----10--10---|
A|------------------------------------------|
E|-8----------------------------------------|

Eb               Eb/D
You shout it out     
    Cm                          Eb
But I can't hear a word you say   
                 Gm                 Cm  Eb
I'm talking loud    not saying much       

Eb             Eb/D
I'm criticized     
    Cm                        Eb
But all your bullets ricochet   
              Gm              Cm  Ab
Shoot me down,   but I get up       

Ab               Bb                 Gm
I'm bullet proof,   nothing to lose   
     Cm             Ab
Fire away, fire away  
         Bb                  Gm
Ricochet,   you take your aim  
     Cm          Ab 
Fire away, fire away
                  Bb                  Gm
You shoot me down    but I won't fall   
       Cm     Ab
I am titanium   
                  Bb                  Gm
You shoot me down    but I won't fall   
       Cm     Ab
I am titanium   

Bridge:
Ab Bb Gm Cm x2

Eb        Eb/D
Cut me down   
         Cm                           Eb
But it's you who have further to fall   
Eb          Eb/D              Cm  Eb
Ghost town,      haunted love       
Eb                Eb/D
Raise your voice,     
 Cm                                  Eb
Sticks and stones may break my bones   
Eb               Gm                 Cm  Ab
I'm talking loud    not saying much       

Ab               Bb                 Gm
I'm bullet proof,   nothing to lose   
     Cm             Ab
Fire away, fire away  
         Bb                  Gm
Ricochet,   you take your aim  
     Cm          Ab 
Fire away, fire away
                  Bb                  Gm
You shoot me down    but I won't fall   
       Cm     Ab
I am titanium   
                  Bb                  Gm
You shoot me down    but I won't fall   
       Cm  Ab  Bb Gm
I am titanium       
       Cm  Ab  Bb Gm
I am titanium       
       Cm  Ab
I am titanium

Ab          Bb            Gm
Stone-hard,    machine gun  
             Cm           Ab
Fring at the ones who run   
Ab         Bb                  Cm     Ab
Stone-hard,   thus bulletproof guns     

Ab                Bb                  Gm
You shoot me down    but I won't fall   
       Cm     Ab
I am titanium   
Ab                Bb                  Gm
You shoot me down    but I won't fall   
       Cm     Ab
I am titanium   
                  Bb                  Gm
You shoot me down    but I won't fall   
       Cm  Ab
I am titanium
                  Bb                  Gm
You shoot me down    but I won't fall   
       Cm  Ab Bb Gm Cm Ab Bb Gm
I am titanium                  
       Cm  Ab  Bb Gm
I am titanium       

If you like the way the song is edited, help us grow with your like please


More songs of Sia:
Breathe Me Elastic Heart Big Girls Cry Bang My Head Chandelier Cheap Thrills Alive soon we'll be found The Girl You Lost to Cocaine Fire Meet Gasoline
More songs from the category Guitar solo:
The Beatles - Drive My Car
Little Richard - Tutti Frutti
Jack Johnson - Posters
Dire Straits - Your Latest Trick
David Bowie - Starman