Harvest Moon chords by Neil Young


RockGuitar solo
No Easy Version
G*: 320000

Intro:

   D                              Em           
e|-5--7-7----9--9---9-----9--|--|-x12---------|
B|-7--7-7----10-10--10----10-|--|----x12------|
G|---------------------11----|x4|-------x12---|
D|---------------------------|--|-------------|
A|---------------------------|--|----------x7-|
E|---------------------------|--|-------------|

Em                      
Come a little bit closer
Em                  D  
Hear what I have to say

Bridge:
D Dmaj7 A D Dmaj7 A Em

Em                         
Just like children sleepin'
Em                         D  
We could dream this night away

Birdge:
D Dmaj7 A D Dmaj7 A G*

G*                            
But there's a full moon risin'
G*                      D    
Let's go dancing in the light

Bridge:

   D                             
e|-5--7-7----9--9---9-----9--|--|
B|-7--7-7----10-10--10----10-|--|
G|---------------------11----|x2|
D|---------------------------|--|
A|---------------------------|--|
E|---------------------------|--|

G*                               
We know where the music's playin'
G*                        D    
Let's go out and feel the night

   D                             
e|-5--7-7----9--9---9-----9--|--|
B|-7--7-7----10-10--10----10-|--|
G|---------------------11----|x2|
D|---------------------------|--|
A|---------------------------|--|
E|---------------------------|--|

A4                             A7 
Because I'm still in love with you
                         A4  
I want to see you dance again
                               A7 
Because I'm still in love with you
                D   
On this harvest moon

Bridge:

   D                              Em           
e|-5--7-7----9--9---9-----9--|--|-x12---------|
B|-7--7-7----10-10--10----10-|--|----x12------|
G|---------------------11----|x4|-------x12---|
D|---------------------------|--|-------------|
A|---------------------------|--|----------x7-|
E|---------------------------|--|-------------|

Em                    
When we were strangers
Em                  D  
I watched you from afar

Bridge:
D Dmaj7 A D Dmaj7 A Em

Em                 
When we were lovers
Em                      D    
I loved you with all my heart

Bridge:
D Dmaj7 A D Dmaj7 A G*

G*                       
But now it's gettin' late
G*                       D   
And the moon is climbin' high

   D                             
e|-5--7-7----9--9---9-----9--|--|
B|-7--7-7----10-10--10----10-|--|
G|---------------------11----|x2|
D|---------------------------|--|
A|---------------------------|--|
E|---------------------------|--|

G*                 
I want to celebrate
G*                     D  
See it shinin' in your eye

   D                             
e|-5--7-7----9--9---9-----9--|--|
B|-7--7-7----10-10--10----10-|--|
G|---------------------11----|x2|
D|---------------------------|--|
A|---------------------------|--|
E|---------------------------|--|

A4                             A7 
Because I'm still in love with you
                        A4   
I want to see you dance again
                               A7 
Because I'm still in love with you
                D   
On this harvest moon

Bridge:

   D                             
e|-5--7-7----9--9---9-----9--|--|
B|-7--7-7----10-10--10----10-|--|
G|---------------------11----|x4|
D|---------------------------|--|
A|---------------------------|--|
E|---------------------------|--|

Bridge:
G G D Dmaj7 A D Dmaj7 A G G D D D A4

A4                             A7 
Because I'm still in love with you
                        A4   
I want to see you dance again
                               A7 
Because I'm still in love with you
                D   
On this harvest moon

Ending:
Bridge:
Em D D Em x4

   D                             
e|-5--7-7----9--9---9-----9--|--|
B|-7--7-7----10-10--10----10-|--|
G|---------------------11----|x4|
D|---------------------------|--|
A|---------------------------|--|
E|---------------------------|--|
Bridge:
Em D D Em x4

Neil Young
HelplessOld ManMy My, Hey Hey (Out Of The Blue)Southern ManHeart Of Goldlook out for my loveOhioFour Strong WindsRockin' In The Free WorldCinnamon Girl
Rock
Aerosmith - Don't Wanna Miss A Thing
Red Hot Chili Peppers - Can't Stop
Travis - Baby One More Time
Jack Johnson - Good People
Oasis - Wonderwall
Harvest Moon Replies
Login To reply - Sign up \ Login