My Songs
My Songs
Hide Commercials
Did you know? No 'did you know', Add an info for this song
אלון אולארצ'יק - בואי נתחבק Chords
Ranking: 5.86 Sign Up and Rank!

אלון אולארצ'יק - בואי נתחבק

Author: חנה גולדברג
Composer: אלון אולארצ'יק
Song Editor: TAB4U Staff Report a Mistake
Login To Report Sign up \ Login

Category: פופ שירי אהבה
Reset
size
פתיחה:

           Em    A     D   
e|---------5---5----------|
B|-----3-7-------3--3--7--|
G|-4h6--------------------|
D|------------------------|
A|------------------------|
E|------------------------|

           G    F#m   Bm  
e|-----------------------|
B|-----3---3--3-5--5--3--|
G|-4h6---4---------------|
D|-----------------------|
A|-----------------------|
E|-----------------------|

Bm       A4     Em        
אם קצת עצוב לך    רע וכואב
Bm  F#m                 G         
אם את זקוקה לי  יש לך גבר אוהב    
Bm       A   Em        
אם את שוכבת     שם לבדך
Bm  F#m              G        
תני לי בחושך    לאחוז בידך    

פזמון:

  D     A   Em        
בואי נתחבק, נלך לאיבוד
 Bm   F#m    G        
בואי נתחבק בסלואו צמוד

מעבר:

           Em    A     D   
e|---------5---5----------|
B|-----3-7-------3--3--7--|
G|-4h6--------------------|
D|------------------------|
A|------------------------|
E|------------------------|

           G    F#m  Bm 
e|---------------------|
B|-----3---3--3--------|
G|-4h6---4------6--6-4-|
D|---------------------|
A|---------------------|
E|---------------------|

Bm        A4  Em        
אם את רועדת    בלילה החם
Bm  F#m                  G        
אם את פוחדת   שכל מה שטוב נעלם    
Bm        A   Em      
בואי לגעת     בואי אלי
  G         
כן, את יודעת
Bm  F#m                 
אני ארקיד אותך לעולם.    

  D     A   Em        
בואי נתחבק, נלך לאיבוד
 Bm   F#m    G        
בואי נתחבק בסלואו צמוד
     D     A   Em        
בואי נתחבק, נלך לאיבוד כן
 Bm   F#m    G        
בואי נתחבק בסלואו צמוד

מעבר:
Em A Bm Bm

                          G         
נה נה נה נה  לה לה  לה לה  לה לה  לה
          Bm                F#m
לה  לה לה  לה   לה לה לה  לה לה
     A            Em      
דה דה דה   דה  דה   דה  דה
Bm   G     Bm        
דה  דה  דההה         

Bm       A     Em        
אם קצת עצוב לך   רע וכואב
    G         
אם את זקוקה לי
 Bm       F#m           
יש לך גבר אוהב   אה  ההה
Bm       A   Em        
אם את שוכבת     שם לבדך
Bm  F#m                G        
תני לי בחושך    לאחוז את ידך    

Bm F#m G D A Em Bm F#m G D A  Em   
אווווו                             
מעבר:
Bm Bm Em G x2

  D     A   Em        
בואי נתחבק, נלך לאיבוד
 Bm   F#m    G        
בואי נתחבק בסלואו צמוד
x4
מעבר:
Bm Bm Em G x2

סיום:
Em G Bm Bm x2
If you like the way the song is edited, help us grow with your like please
More songs of אלון אולארצ'יק:
בן בסט
More songs from the category פופ:
דנה לב - טיפשה טיפשה
רותם כהן - לבד על הגג
אריק ברמן - הבחורה עם החתולים
דין דין אביב - אני לא ממתינה
אדם - אין מוצא