Hide Commercials
Did you know?
No 'did you know', Add an info for this song
Pixies - Where Is My Mind? Chords
Ranking: 5.84 Sign Up and Rank!

Pixies - Where Is My Mind?



Ooh, stop

Bridge:
E C#m Ab A E C#m Ab A

Continue Bridge and during the song:

   E       C#m     Ab      A                 
e|---4---4---4---4---4---4---------------|--|
B|-5---5---5---5---4---4---5--5-4-5--5-4-|--|
G|---------------------------------------|--|
D|---------------------------------------|x2|
A|---------------------------------------|--|
E|---------------------------------------|--|

          E              
With your feet on the air
         C#m                 Ab A  E
And your head on the ground         
 E  C#m            Ab       A     E
Try this trick and spin it, yeah   
               C#m   
Your head'll collapse
           Ab           
If there's nothing in it
                A             E
And then you'll ask yourself   

E           C#m   Ab
Where is my mind?   
Ab          A    
Where is my mind?
E        C#m      Ab A
Where is my mind?     

Bridge:
E C#m Ab A

E     Ab           A    
Way   out   in the water
        Am      C#m  B
See it swimmin'       

E                     C#m           Ab A E
I was swimmin' in the     Caribbean       
E            C#m             Ab   A  E
Animals were hiding behind a rock     
E                 C#m 
Except the little fish
         Ab                          
Bumped into me  I swear he was trying
   A                   E
To talk to me coy koi   

E           C#m   Ab
Where is my mind?   
Ab          A    
Where is my mind?
E         C#m     Ab A
Where is my mind?     

Bridge:
E C#m Ab A

E     Ab           A    
Way   out   in the water
        Am      C#m  B
See it swimmin'       

Solo:

   B                                       
e|----------------------------------------|
B|-7-----7------7------------------7--s10-|
G|-9b11--9b11--b11-9-7-------7---9--------|
D|---------------------9---9--------------|
A|----------------------------------------|
E|----------------------------------------|

   B                                        
e|----10-12-12b14--12b14--12b14--12b14-14\-|
B|-12--------------------------------------|
G|-----------------------------------------|
D|-----------------------------------------|
A|-----------------------------------------|
E|-----------------------------------------|

          E              
With your feet on the air
         C#m                 Ab A  E
And your head on the ground         
 E  C#m            Ab       A     E
Try this trick and spin it, yeah   
               C#m   
Your head'll collapse
           Ab           
If there's nothing in it
                A             E
And then you'll ask yourself   

E           C#m   Ab
Where is my mind?   
Ab          A    
Where is my mind?
E         C#m     Ab A
Where is my mind?     

Bridge:
E C#m Ab A

E     Ab           A    
Way   out   in the water
        Am      C#m  B   E
See it swimmin'           

   C#m  Ab A
Oohhhhh     
          E              
With your feet on the air
         C#m                Ab A  E
And your head on the ground        
E   C#m             Ab       A    E
Try this trick  and spin it, yeah  

   C#m  Ab A E   C#m   Ab A E
Oohhhhh        oohhhhh       
   C#m  Ab A E   C#m   Ab
Oohhhhh        oohhhhh   
If you like the way the song is edited, help us grow with your like please


More songs of Pixies:
Hey
More songs from the category Rock:
Queen - Under Pressure
David Bowie - Rebel Rebel
The Beatles - Cry Baby Cry
Aerosmith - Jaded
Hozier - Work Song