She's A Rainbow chords by Rolling Stones

Strumming:

Rock
Easy Version
Intro:

               F                     
e|-----------6-5-------5-------5--5-|
B|-----4-6-8-------6-------8--------|
G|-5-7-----------5---5---5---5------|
D|----------------------------------|
A|----------------------------------|
E|----------------------------------|

               F                     
e|-----------6-5---5---5-------5--5-|
B|-----4-6-8---------------8--------|
G|-5-7-----------5---5---5---5------|
D|----------------------------------|
A|----------------------------------|
E|----------------------------------|

   F                              
e|-----------6-5-------------6-5-|
B|-----4-6-8-----------4-6-8-----|
G|-5-7-------------5-7-----------|
D|-------------------------------|
A|-------------------------------|
E|-------------------------------|

               Bb                          
e|----------------------------------------|
B|-----4---4-8----------------------------|
G|-5-7---7------8---7--7--8p7p5-7-8--7--7-|
D|----------------------------------------|
A|----------------------------------------|
E|----------------------------------------|

Bb                       Eb   
She comes in colors ev'rywhere
              Bb  
She combs her hair
             Bb     
She's like a rainbow
                      Eb 
Coming, colors in the air
         Bb   
Oh, everywhere
             F       Bb
She comes in colors    

Repeat Intro:
F F F Bb

Bb                       Eb   
She comes in colors ev'rywhere
              Bb  
She combs her hair
             Bb     
She's like a rainbow
                      Eb 
Coming, colors in the air
         Bb   
Oh, everywhere
             F       Bb
She comes in colors    

Bridge:
F F F F F F Bb Bb Eb Bb Bb Bb Eb Bb F F Bb Bb

Bb                            F   
Have you seen her dressed in blue?
                        F  
See the sky in front of you
                       F   
And her face is like a sail
                           F   
Speck of white so fair and pale
                     Bb     
Have you seen a lady fairer?

Bb                       Eb   
She comes in colors ev'rywhere
              Bb  
She combs her hair
             Bb     
She's like a rainbow
                      Eb 
Coming, colors in the air
         Bb   
Oh, everywhere
             F       Bb
She comes in colors    

                         F    
Have you seen her all in gold?
                        F  
Like a queen in days of old
                           F    
She shoots her colors all around
                    F   
Like a sunset going down
                     Bb4  Bb
Have you seen a lady fairer?

Bb                       Eb   
She comes in colors ev'rywhere
              Bb  
She combs her hair
             Bb     
She's like a rainbow
                      Eb 
Coming, colors in the air
         Bb   
Oh, everywhere
             F       F7 Bb
She comes in colors       

Repeat Intro:
F F F Bb
Bridge:
F Bb F F x2

Eb                             
Uu la laaa  uu laa  laa laa laa
Bb                
Uu la laaa  uu laa
             Bb     
She's like a rainbow
                      Eb 
Coming, colors in the air
         Bb   
Oh, everywhere
             F       Bb
She comes in colors    
Bridge:
F Bb F F x2

Ending:
F F F Bb x2
Rolling Stones
Start Me UpLiving In A Ghost TownMidnight RamblerSympathy For The DevilAngieAs Tears Go ByYou Can't Always Get What You WantSatisfactionGimme SheleterJumping Jack Flash
Rock
Guns N' Roses - November Rain
Metallica - Turn the Page
Kleerup - Let Me In
Useless ID - Turn up the stereo
Gregory Alan Isakov - The moon was red and dangerous
She's A Rainbow Replies
Login To reply - Sign up \ Login