My Songs
My Songs
Hide Commercials
Did you know? No 'did you know', Add an info for this song
אלג'יר - שיר הבתולים Chords
Ranking: 6 Sign Up and Rank!

אלג'יר - שיר הבתולים

Author And Composer: אביב גדג'
Reset
size
<
   G              Ab    G  Cm
כמו ילד זרועותיו פשוקות הצידה
Cm G       Ab    G  Cm
כמו ילד מסתכל על הנערה
   G        Ab     G  Cm 
כמו הנערה שפתיה רק הבשילו
 Cm  G     Ab       G   Cm
כמו הנערה שאיבדה את בתוליה

מעבר:

  Cm      G          Ab        G     
e|----------------------------------|
B|----8---6--8-6--------------------|
G|-5-------------7---8---7h8-7-5-4--|
D|----------------------------------|
A|----------------------------------|
E|----------------------------------|

   Cm           G                 Ab      G   Cm
e|---------------------------------------------|
B|------4---6-4--------------------------------|
G|--5-7---7-----7-5--4h5-4-----------4-5-7b8-5-|
D|-------------------------6-5---5-6-----------|
A|---------------------------------------------|
E|---------------------------------------------|

  G        Ab       G    Cm
כמו אישה זקנה על הדשא המחוץ
 Cm   G  Ab       G    Cm 
כמו תריסר בנות שמחפשות חתן
 G        Ab      G    Cm
כמו אישה חולה מחפשת תרופה
 Cm    G    Ab  G   Cm
כמו הרב שלא מוצא תשובה

מעבר:
Cm G Ab G Cm G Ab G Cm

 G                Ab   G   Cm 
וכמו ילד זרועותיו נישאות אל על
 Cm   G   Ab      G  Cm
כמו ילד שחולה אצלי בבטן
  G            Ab      G   Cm
כמו המשורר קורע את גרונו בבכי
 Cm    G    Ab     G   Cm
כמו המשורר  שמת אצלי בבטן

כמו אישה זקנה...

 G       Ab      G    Cm
כמו אישה חולה מחפשת נחמה
 Cm  G     Ab       G   Cm
כמו הנערה שאיבדה את בתוליה

 Cm  G     Ab       G   Cm
כמו הנערה שאיבדה את בתוליה

סיום:
G Cm G Cm x4
If you like the way the song is edited, help us grow with your like please
More songs of אלג'יר:
More songs from the category לא הוגדר:
אהוד בנאי - אל אדון כל המעשים
מוש בן ארי - בן אדם
רונה קינן - מי מפחד מהזריחה
אתניקס - האינטרנט שלי
שייגעצ - שזיף