My Songs
My Songs
Full Access »
Hide Ads »

The Beatles - Here Comes The Sun

Ranking: 5.96 Sign Up and Rank!
Author And Composer: George Harrison
Song Editor: TAB4U Staff
Category: Familiar Songs Guitar solo
Strumming:
To view Strummings you must be a logged in userSign up \ Login
Intro:

   A                      D         
e|-9----7-9------9-7-------------7-|
B|10-10------10-------10--7--10----|
G|-9-------------------------------|
D|-7-------------------------------|
A|---------------------------------|
E|---------------------------------|

      E7          A                    
e|--------------7---9----7-9------9-7-|
B|-10--9-7-9-10-------10------10------|
G|------------------------------------|
D|----------------7-------------------|
A|------------------------------------|
E|------------------------------------|

       D          E7  
e|--------9-7--------|
B|-10--7------10--9--|
G|-------------------|
D|-------------------|
A|-------------------|
E|-------------------|

A                               D
Here comes the sun, do do do do  
               B7             A
Here comes the sun, and I say  
A             
It's all right

Bridge:

      D     A     E     A     E        A
e|--------7----7-----7-----7-----------|
B|-----10----10----10----10--10p9-7----|
G|-9s11-----9-----7-----9------------9-|
D|-------------------------------------|
A|-------------------------------------|
E|-------------------------------------|

A             
Little darling
            D        
It's been a long cold
       E       A
lonely winter   
A             
Little darling
              D    
It feels like years
                E      A
since it's been here    

A                               D
Here comes the sun, do do do do  
               B7              A
Here comes the sun, and I say   
A             
It's all right

Bridge:

      D     A     E     A     E        A
e|--------7----7-----7-----7-----------|
B|-----10----10----10----10--10p9-7----|
G|-9s11-----9-----7-----9------------9-|
D|-------------------------------------|
A|-------------------------------------|
E|-------------------------------------|

   A           E7         A
e|-9----7-9-------------7-|
B|---10--------9-7-9-10---|
G|------------------------|
D|------------------------|
A|------------------------|
E|------------------------|

A             
Little darling
             D              E      A
The smiles returning to the faces   
A             
Little darling
              D    
It seems like years
                E     A
since it's been here   
A                    D
Here comes the sun,   
               B7              A
Here comes the sun, and I say   
A             
It's all right

Bridge:

      D     A     E     A     E        A
e|--------7----7-----7-----7-----------|
B|-----10----10----10----10--10p9-7----|
G|-9s11-----9-----7-----9------------9-|
D|-------------------------------------|
A|-------------------------------------|
E|-------------------------------------|

   A           E7     
e|-9----7-9----------|
B|---10--------9---9-|
G|-------------------|
D|-------------------|
A|-------------------|
E|-------------------|

Bridge and In the next part:

           C      G        D/F#   D   A   E
e|----------------------------------------|
B|---------------8------------------------|
G|-------------9--------7------7----------|
D|--------9-10--------9------9--------7---|
A|-----11----------10------9--------9-----|
E|--12---------------------------10-------|

C    G    D/F#   D       A     E
Sun, sun, sun,   here it comes  
C    G    D/F#   D       A     E
Sun, sun, sun,   here it comes  
C    G    D/F#   D       A     E
Sun, sun, sun,   here it comes  
C    G    D/F#   D       A     E
Sun, sun, sun,   here it comes  
C    G    D/F#   D       A     E
Sun, sun, sun,   here it comes  

A             
Little darling
            D             E        A
I feel that ice is slowly melting   
A             
Little darling
              D   
It seems like year
                 E     A
since it's been clear   

               A                D
Here comes the sun, do do do do  
               B7              A
Here comes the sun, and I say   
A             
It's all right

Bridge:

      D     A     E     A     E        A
e|--------7----7-----7-----7-----------|
B|-----10----10----10----10--10p9-7----|
G|-9s11-----9-----7-----9------------9-|
D|-------------------------------------|
A|-------------------------------------|
E|-------------------------------------|

               A                D
Here comes the sun, do do do do  
               B7              A
Here comes the sun, and I say   
A             
It's all right

Bridge:

      D     A     E     A     E        A
e|--------7----7-----7-----7-----------|
B|-----10----10----10----10--10p9-7----|
G|-9s11-----9-----7-----9------------9-|
D|-------------------------------------|
A|-------------------------------------|
E|-------------------------------------|

A             
It's all right

Ending:
Bridge:
D A A E7 x2

      D     A     E     A     E        A
e|--------7----7-----7-----7-----------|
B|-----10----10----10----10--10p9-7----|
G|-9s11-----9-----7-----9------------9-|
D|-------------------------------------|
A|-------------------------------------|
E|-------------------------------------|
Bridge:
D A A E7 x2

   C      G       D/F#  D    A    
e|---------------------------9---|
B|------8--------------------10--|
G|----9--------7------7------9---|
D|-10--------9------9--------7---|
A|--------10------9--------9-----|
E|----------------------10-------|
More songs of The Beatles:
When I'm Sixty Four Hey Jude In My Life While My Guitar Gently Weeps Revolution Because Girl Sexy Sadie Ticket To Ride Things We Said Today
More songs from the category Familiar Songs:
Alanis Morissette - Hand in my pocket
ABBA - Mama-mia
Elvis Costello - I Want You
Red Hot Chili Peppers - Can't Stop
Daniel Powter - Bad Day