Hide Commercials
Did you know?
No 'did you know', Add an info for this song
The Beatles - In My Life Chords
Ranking: 5.98 Sign Up and Rank!

The Beatles - In My Life

Author And Composer: John Lennon and Paul McCartney
Category: Rock | Familiar Songs
Intro:

   A           E     A           E  
e|----5--------4--------5--------4-|
B|-----------5-----------------5---|
G|-6-----6h7---------6-----6h7-----|
D|---------------------------------|
A|---------------------------------|
E|---------------------------------|

           A     E   F#m   
There are places I remember
       D Dm          A                
All my life   though some have changed
        A    E       F#m   
Some forever not for better
          D Dm       A          
Some have gone   and some remain
          F#m               D      
All these places have their moments
     G                       A              
With lovers and friends   I still can recall
         F#m               B7    
Some are dead and some are living
   Dm             A             
In my life   I've loved them all

Bridge:

   A           E   
e|----5--------4--|
B|-----------5----|
G|-6-----6h7------|
D|----------------|
A|----------------|
E|----------------|

       A          E          F#m   
But of all these friends and lovers
         D   Dm      A             
There is no  one  compares with you
          A        E          F#m    
And these memories lose their meaning
       D         Dm       A            
When I think  of love  as something new
         F#m                   D       
Though I know I'll never lose affection
    G                        A          
For people and things   that went before
  F#m                            B7        
I know I'll often stop and think about them
   Dm         A            
In my life  I love you more

Bridge:
A E F#m D Dm A A E F#m D Dm A

         F#m                   D       
Though I know I'll never lose affection
    G                        A          
For people and things   that went before
  F#m                            B7        
I know I'll often stop and think about them
   Dm         A            
In my life  I love you more

Bridge:

   A           E   
e|----5--------4--|
B|-----------5----|
G|-6-----6h7------|
D|----------------|
A|----------------|
E|----------------|

   Dm          A            
In my life   I love you more

Ending:

   A           E              A  
e|----5--------4------4-2-4---5-|
B|-----------5-------3--------5-|
G|-6-----6h7--------4---------6-|
D|------------------------------|
A|------------------------------|
E|------------------------------|

If you like the way the song is edited, help us grow with your like please


More songs of The Beatles:
Strawberry Fields Forever Twist And Shout All My Loving BlackBird A Day In The Life Ticket To Ride Anna (Go To Him) Bad to me Yellow Submarine Don't Let Me Down
More songs from the category Rock:
Linkin Park - Numb
Adele - He won't go
Pink - Just Like A Pill
Red Hot Chili Peppers - Brendan's Death Song
Cornershop - Brimful Of Asha