Hide Commercials
Did you know?
No 'did you know', Add an info for this song
4 Non Blondes - Whats Up Chords
Ranking: 6.02 Sign Up and Rank!

4 Non Blondes - Whats Up

Author And Composer: Linda Perry
Intro:

   A Bm D A                       Bm                
e|-------------------------------------------------|
B|-----------/5-5--5---5---------------------------|
G|------------------------------------------2------|
D|-----------------------7----7-7/-4---2h4----4--2-|
A|-------------------------------------------------|
E|-------------------------------------------------|

         D                A               
e|---------------------------------------|
B|---------------3-----------------------|
G|---2---2-----2---2-5b6--2------------2-|
D|-4---4-----------------------2--0-2----|
A|---------------------------------------|
E|---------------------------------------|

A                                          
Twenty-five years  and I'm alive here still
 Bm                                     D   
Trying to get up that great big hill of hope
           A     
For a destination
  A                                    
I realized quickly when I knew I should
         Bm                       
That the world was made up of this
               D  
Brotherhood of man
                  A    
For whatever that means

          A                                 
And so I cry sometimes when I'm lying in bed
        Bm                              
Just to get it all out what's in my head
          D                            A     
And I'm,     I am feeling   a little peculiar
         A                                     
And so I wake in the morning and I step outside
      Bm                                  
And I take deep breath and I get real high
      D                                
And I   scream from the top of my lungs
             A 
What's goin' on

          A                           
And I say hey  yeah   yeah   heah heah
Bm                        D                  A 
Hey  yeah   yeah   I said hey   what's goin' on
          A                           
And I say hey  yeah   yeah   heah heah
Bm                        D                  A 
Hey  yeah   yeah   I said hey   what's goin' on

Bridge:

   A         Bm                    D              A  
e|--------------------------------------------------|
B|----------------------------------------3---------|
G|-------------------2---------2---2----2---2-5h6-2-|
D|-7---7-7/--4--2h4----4--2--4---4------------------|
A|--------------------------------------------------|
E|--------------------------------------------------|

             A         Bm                    D  
e|---------------------------------------------|
B|---------------------------------------------|
G|-----------------------------2---------2---2-|
D|-----------7---7-7/--4--2h4----4--2--4---4---|
A|-5-7--5-7------------------------------------|
E|---------------------------------------------|

              A                 
e|-----------------------------|
B|----3------------------------|
G|--2---2-5h6-2-------------2--|
D|----------------0-2--0-2-----|
A|-----------------------------|
E|-----------------------------|

       A                     Bm
And I try,   oh my God do I try
  Bm          D                    A     
I try all the time    in this institution
       A                    Bm 
And I pray, oh my God do I pray
                    D              A     
I pray every single day  for a revolution

          A                                 
And so I cry sometimes when I'm lying in bed
        Bm                               
Just to get it all out  what's in my head
          D                            A     
And I'm,     I am feeling   a little peculiar
         A                                     
And so I wake in the morning and I step outside
      Bm                                  
And I take deep breath and I get real high
      D                                
And I   scream from the top of my lungs
             A 
What's goin' on

          A                           
And I say hey  yeah   yeah   heah heah
Bm                        D                  A 
Hey  yeah   yeah   I said hey   what's goin' on
          A                           
And I say hey  yeah   yeah   heah heah
Bm                        D                  A 
Hey  yeah   yeah   I said hey   what's goin' on
          A                           
And I say hey  yeah   yeah   heah heah
Bm                        D                  A 
Hey  yeah   yeah   I said hey   what's goin' on
          A                           
And I say hey  yeah   yeah   heah heah
Bm                                D                 A 
Hey  yeah   yeah yeah yeah I said hey  what's goin' on

Bridge:

               A         Bm               
e|---------------------------------------|
B|-/5-5--5---5---------------------------|
G|-------------------------------2-------|
D|-------------7----7-7/-4---2h4----4--2-|
A|---------------------------------------|
E|---------------------------------------|

         D                A  Aadd9 A
e|---------------------------------|
B|---------------3-----------------|
G|---2---2-----2---2-5b6--2--------|
D|-4---4---------------------------|
A|---------------------------------|
E|---------------------------------|

A                                        Aadd9
Twenty-five years  and I'm alive here still   
 Bm                                     D   
Trying to get up that great big hill of hope
      D4 D A     
For a destination
If you like the way the song is edited, help us grow with your like please
More songs of 4 Non Blondes:
More songs from the category Rock:
Green day - Wake Me Up When September Ends
The Angelcy - Freedom Fighters
The Beatles - While My Guitar Gently Weeps
Jack Johnson - You and Your Heart
Aerosmith - Walk This Way