Tutti Frutti chords by Little Richard

Easy Version
                                         F7            
Wop-bom-a-loo-mop-a-lomp-bom-bom! tutti frutti, oh Rudy
       F7               
Tutti frutti, woooooooo
      Bb7                      F7             
Tutti frutti, oh Rudy,  tutti frutti, oh Rudy,
       C7         Bb7 
Tutti frutti,  oh Rudy
  F7                               
A-wop-bom-a-loo-mop-a-lomp-bom-bom!

        F7                                         
I got a girl, named Sue, she knows just what to do,
        Bb7                  F7                    
I got a girl, named Sue, she knows just what to do,
    F7                     F7                
She rock to the east,  she rocks to the west,
    F7                             
But she's the girl that I love best

       F7            
Tutti frutti, oh Rudy
       F7              
Tutti frutti, woooooooo
      Bb7                     F7            
Tutti frutti, oh Rudy  tutti frutti, oh Rudy
       C7         Bb7 
Tutti frutti,  oh Rudy
  F7                               
A-wop-bom-a-loo-mop-a-lomp-bom-bom!

        F7                                            
I got a girl, named Daisy, she almost drives me crazy,
        Bb7                    F7                     
I got a girl, named Daisy, she almost drives me crazy,
    F7                    F7         
She knows how to love me, yes indeed,
    F7                        F7         
Boy you don't know what she's doin' to me

       F7            
Tutti frutti, oh Rudy
       F7              
Tutti frutti, woooooooo
       Bb7                     F7            
Tutti frutti, oh Rudy,  tutti frutti, oh Rudy
       C7         Bb7 
Tutti frutti,  oh Rudy
  F7                               
A-wop-bom-a-loo-mop-a-lomp-bom-bom!

Solo:

     F7                                           Bb7   
e|-----------------------------------------------------|
B|-9-9b11---9-9b11-6---6-9b11-9b11--6---6-6-----6-8b10-|
G|------------------------------------7-------7--------|
D|-----------------------------------------------------|
A|-----------------------------------------------------|
E|-----------------------------------------------------|

                 F7                       C7          
e|---------------------------------------6b7---6-----|
B|-8-8b10-6-----8b10-8b10---6---6-6----6---------9-6-|
G|------------7---------------7----------------------|
D|---------------------------------------------------|
A|---------------------------------------------------|
E|---------------------------------------------------|

         Bb7              
e|-----------------------|
B|-------6--6-------5-6--|
G|-5-7-5--------8--------|
D|-----------------------|
A|-----------------------|
E|-----------------------|

       F7            
Tutti frutti, oh Rudy
       F7              
Tutti frutti, woooooooo
      Bb7                      F7            
Tutti frutti, oh Rudy,  tutti frutti, oh Rudy
      C7          Bb7 
Tutti frutti,  oh Rudy
  F7                               
A-wop-bom-a-loo-mop-a-lomp-bom-bom!

        F7                                            
I got a girl, named Daisy, she almost drives me crazy,
        Bb7                    F7                     
I got a girl, named Daisy, she almost drives me crazy,
    F7                    F7         
She knows how to love me, yes indeed,
F7                            F7         
Boy you don't know what she's doin' to me
Bridge:
Bb7 C7 F7 F7 x4

       F7            
Tutti frutti, oh Rudy
       F7              
Tutti frutti, woooooooo
      Bb7                      F7            
Tutti frutti, oh Rudy,  tutti frutti, oh Rudy
      C7          Bb7 
Tutti frutti,  oh Rudy
  F7                               
A-wop-bom-a-loo-mop-a-lomp-bom-bom!

Ending:
F7 F7 Bb7 C7 x4
Little Richard
Familiar Songs
Tom Petty - Free Falling
Pink floyd - Breathe
Cornershop - Brimful Of Asha
Guns N' Roses - Knocking On Heaven's Door
Spin Doctors - Two Princes
Tutti Frutti Replies
Login To reply - Sign up \ Login