Hide Commercials
Did you know?
No 'did you know', Add an info for this song
The Beatles - Birthday Chords
Ranking: 5.94 Sign Up and Rank!

The Beatles - Birthday

Author And Composer: John Lennon and Paul McCartney
Intro Bridge and in Verses:

   A7                                         
e|-------------------------------------------|
B|--------5--8-7--5--------------5--8-7--5---|
G|-2-2-/6-----------------2-2-/6-------------|
D|------------------7----------------------7-|
A|-------------------------------------------|
E|-------------------------------------------|

   D7                     A7                  
e|--------5--8-7--5--------------------------|
B|-3-3-/7------------------------5--8-7--5---|
G|------------------7-----2-2-/6-------------|
D|-----------------------------------------7-|
A|-------------------------------------------|
E|-------------------------------------------|

   E7                     A7                  
e|--------7-10-9--7--------------------------|
B|-5-5-/9------------------------5--8-7--5---|
G|------------------9-----2-2-/6-------------|
D|-----------------------------------------7-|
A|-------------------------------------------|
E|-------------------------------------------|

    A7                    
You say it's your birthday
    A7                     D7
It's my birthday too, yeah   
     D7                     A7
They say it's your birthday   
A7                           E7
We're gonna have a good time   
    E7                      A7
I'm glad it's your birthday   
               A7     
Happy birthday to you.

Bridge:
E

E                               
Yes we're going to a party party
E                               
Yes we're going to a party party
E                                 C
Yes we're going to a party party   

C7      G7                 C7       
I would like you to dance (Birthday)
       G7                  C7       
Take a cha-cha-cha-chance (Birthday)
        G7                 C7       
I would like you to dance (Birthday)
G      E5
Dance    

Repeat Intro:
A7 A7 D7 A7 E7 A7

Bridge:

                                                        C7
e|---------5----------------------5--8--10b12b10-8-------|
B|---5--8-----5-------------5--8-------------------10--8-|
G|--------------7-5--------------------------------------|
D|-7----------------7-5---7------------------------------|
A|-------------------------------------------------------|
E|-------------------------------------------------------|

C7      G7                 C7       
I would like you to dance (Birthday)
       G7                  C7       
Take a cha-cha-cha-chance (Birthday)
        G7                 C7       
I would like you to dance (Birthday)
G      E5    A7
Dance          

    A7                    
You say it's your birthday
    A7                     D7
It's my birthday too, yeah   
     D7                     A7
They say it's your birthday   
A7                           E7
We're gonna have a good time   
    E7                      A7
I'm glad it's your birthday   
      A7              
Happy birthday to you.
If you like the way the song is edited, help us grow with your like please
More songs of The Beatles:
She Loves You Things We Said Today Real Love Penny Lane Words of love Bad to me Oh! Darling Let It Be Anna (Go To Him) Hey Jude
More songs from the category Guitar solo:
The Beatles - Something
Neil Young - Harvest Moon
Madonna - Don't Tell Me
Aerosmith - Walk This Way
Dick Dale - Misirlou