Hide Commercials
Did you know?
No 'did you know', Add an info for this song
The Beatles - BlackBird Chords
Ranking: 5.94 Sign Up and Rank!

The Beatles - BlackBird

Author And Composer: John Lennon and Paul McCartney
Intro:

e|------------------------------------------------|
B|-0---1---3---s12---12----12----12----12----12---|
G|---0---0---0-----0----------0------0----------0-|
D|------------------------------------------------|
A|-----0---2---s10------10-------10-------10------|
E|-3----------------------------------------------|

 G        Am7            G/B     G    
Blackbird singing in the dead of night
C          C#dim  D         D/Eb     Em  Em/Eb
Take these broken wings and learn to fly      
D   C#dim C    Cm
All your  life   
G/B           A7               D7        G    
You were only waiting for this moment to arise

Bridge:

e|------------------------------------------------|
B|-5--3--2----2---2----1----1---1----0----0---0---|
G|----------0-------0-----0-------0-----0-------0-|
D|---------------------0------0-------------------|
A|-3--2--0------0---------------------------------|
E|-----------------------------------3------3-----|

 G        Am7            G/B     G    
Blackbird singing in the dead of night
C          C#dim  D        D/Eb     Em  Em/Eb
Take these sunken eyes and learn to see      
D   C#dim C    Cm
All your  life   
G/B           A7               D7            G  
you were only waiting for this moment to be free

F C/E  Dm  C  Bb  C   F C/E Dm C  Bb  A7
Blackbird    fly,    Blackbird   fly    
         D7                      G     
Into the light of the dark black night.

Bridge:

e|----------------------------------------|
B|-0---1---3---s12---12----12----12----12-|
G|---0---0---0-----0----------0------0----|
D|----------------------------------------|
A|-----0---2---s10------10-------10----10-|
E|-3--------------------------------------|

e|-----3-------5-----------------------------|
B|-5-------7-------8---8---8----8----8---8---|
G|-------------------0-------0-----0-------0-|
D|-------------------------------------------|
A|-3---4---5---6---7-----7------6------6-----|
E|-------------------------------------------|

e|-----3-------------------------------------------|
B|-7-------5---5---5-----4---4---4-----3---3---3---|
G|-----------0-------0-----0-------0-----0-------0-|
D|-------------------------------------------------|
A|-5---4---3-----3-------3-----3-------2-----2-----|
E|-------------------------------------------------|

e|------------------------------------------|
B|--2----2---2----1----1---1----0---0---0---|
G|-----0-------0-----0-------0----0-------0-|
D|----------------0------0------------------|
A|--0------0--------------------------------|
E|------------------------------3-----3-----|

 F C/E Dm  C  Bb  C   F C/E Dm C  Bb  A7
Blackbird    fly,    Blackbird   fly    
         D7                      G     
Into the light of the dark black night.

Bridge:

e|------------------------------------------------|
B|-0---1---3---s12---12----12----12----12----12---|
G|---0---0---0-----0----------0------0----------0-|
D|------------------------------------------------|
A|-----0---2---s10------10-------10-------10------|
E|-3----------------------------------------------|

e|------------------------------------------------------------|
B|-12---12----12-----12----12----12-----12---12---12---12-----|
G|----0----------0-------0----------0-------------------------|
D|------------------------------------------------------------|
A|-10------10--------10-------10--------10---10---10---10-----|
E|------------------------------------------------------------|

e|-----------------------------------------|
B|-12\-0---1---3---5---3---2---1----1--1---|
G|-------0---0---0---0---0---0----0------0-|
D|-----------------------------0------0----|
A|-10\-----0---2---3---2---0---------------|
E|-----3-----------------------------------|

 G        Am7            G/B     G    
Blackbird singing in the dead of night
C          C#dim  D         D/Eb     Em  Em/Eb
Take these broken wings and learn to fly      
D   C#dim C    Cm
All your  life   
G/B           A7               D7        G    
You were only waiting for this moment to arise
C        G/B  A7               D7        G    
You were only waiting for this moment to arise
C        G/B  A7               D7        G    
You were only waiting for this moment to arise

Bridge:

e|------------------------------------------------|
B|-0---1---3---s12---12----12----12----12----12---|
G|---0---0---0-----0----------0------0----------0-|
D|------------------------------------------------|
A|-----0---2---s10------10-------10-------10------|
E|-3----------------------------------------------|

 G        Am7            G/B     G    
Blackbird singing in the dead of night
C          C#dim  D         D/Eb     Em  Em/Eb
Take these broken wings and learn to fly      
D   C#dim C    Cm
All your  life   
G/B           A7               D7        G    
You were only waiting for this moment to arise

Bridge:

e|------------------------------------------------|
B|-5--3--2----2---2----1----1---1----0----0---0---|
G|----------0-------0-----0-------0-----0-------0-|
D|---------------------0------0-------------------|
A|-3--2--0------0---------------------------------|
E|-----------------------------------3------3-----|

 G        Am7            G/B     G    
Blackbird singing in the dead of night
C          C#dim  D        D/Eb     Em  Em/Eb
Take these sunken eyes and learn to see      
D   C#dim C    Cm
All your  life   
G/B           A7               D7            G  
you were only waiting for this moment to be free

 F C/E Dm  C  Bb  C   F C/E Dm C  Bb  A7
Blackbird    fly,    Blackbird   fly    
         D7                      G     
Into the light of the dark black night.

Bridge:

e|----------------------------------------|
B|-0---1---3---s12---12----12----12----12-|
G|---0---0---0-----0----------0------0----|
D|----------------------------------------|
A|-----0---2---s10------10-------10----10-|
E|-3--------------------------------------|

e|-----3-------5-----------------------------|
B|-5-------7-------8---8---8----8----8---8---|
G|-------------------0-------0-----0-------0-|
D|-------------------------------------------|
A|-3---4---5---6---7-----7------6------6-----|
E|-------------------------------------------|

e|-----3-------------------------------------------|
B|-7-------5---5---5-----4---4---4-----3---3---3---|
G|-----------0-------0-----0-------0-----0-------0-|
D|-------------------------------------------------|
A|-5---4---3-----3-------3-----3-------2-----2-----|
E|-------------------------------------------------|

e|------------------------------------------|
B|--2----2---2----1----1---1----0---0---0---|
G|-----0-------0-----0-------0----0-------0-|
D|----------------0------0------------------|
A|--0------0--------------------------------|
E|------------------------------3-----3-----|

F C/E  Dm  C  Bb  C   F C/E Dm C  Bb  A7
Blackbird    fly,    Blackbird   fly    
         D7                      G     
Into the light of the dark black night.

Ending:

e|------------------------------------------------|
B|-0---1---3---s12---12----12----12----12----12---|
G|---0---0---0-----0----------0------0----------0-|
D|------------------------------------------------|
A|-----0---2---s10------10-------10-------10------|
E|-3----------------------------------------------|

e|---------------------------------------------------------|
B|-12---12----12-----12----12----12-----12---12---12---12--|
G|----0----------0-------0----------0----------------------|
D|---------------------------------------------------------|
A|-10------10--------10-------10--------10---10---10---10--|
E|---------------------------------------------------------|

If you like the way the song is edited, help us grow with your like please
More songs of The Beatles:
A Day In The Life Revolution She Loves You Girl All My Loving Yellow Submarine Words of love Real Love Cry Baby Cry Bad to me
More songs from the category Familiar Songs:
The Beatles - Here Comes The Sun
Joan osborne - One Of Us
Madonna - Beautiful Stranger
The Verve - Sonnet
Maroon 5 - She Will Be Loved