Hide Commercials
Did you know?
No 'did you know', Add an info for this song
The Beatles - Drive My Car Chords
Ranking: 5.96 Sign Up and Rank!

The Beatles - Drive My Car

Author And Composer: Paul McCartney and John Lennon
Intro:

e|-------------------2--2-0---0-2-|
B|-----3-----5b6-----3--3-1---1-3-|
G|-2-5---5-2-------5--------2-----|
D|--------------------------------|
A|--------------------------------|
E|--------------------------------|

D7                    G             D7
Asked a girl what she wanted to be,   
                    G              D7
She said , "Baby,   can't you see?   
                      G                 
I wanna be famous, a star of the screen,
    A                                
But you can do something in between."

 Bm                     G   
"Baby, you can drive my car,
Bm                  G   
Yes I'm gonna be a star.
Bm                     E   
Baby, you can drive my car,
    A       D         G  A  D7
And maybe I love you."        

D7                        G                   D7
I told that girl that my prospects were good,   
                      G           D7
She said, "Baby, it's understood.   
                       G             
Working for peanuts is all very fine,
    A                             
But I can show you a better time."

 Bm                     G   
"Baby, you can drive my car,
Bm                  G   
Yes I'm gonna be a star.
Bm                     E   
Baby, you can drive my car,
    A       D         G  A
And maybe I love you."    
                       D    
Beep Beep   Beep Beep  yeahh

Solo:

   D7                  G                F7             
e|---8b10b8------------------------------------8b10b8-|
B|-------------10p8----8--8--8----8-------------------|
G|-7---------7------10---------10-----------7---------|
D|------------------------------------7-10------------|
A|----------------------------------------------------|
E|----------------------------------------------------|

             G                 D7                      G  
e|------------------------------------8b10b8-------------|
B|---10p8----8--8---8--------------------------10p8----8-|
G|-7------10----------10-7----------7--------7------10---|
D|----------------------------7-10-----------------------|
A|-------------------------------------------------------|
E|-------------------------------------------------------|

               A                                    Bm  
e|-------------5--5--s8---8---s10--10---s13--s8-s10-10-|
B|-8--8------------------------------------------------|
G|-------10-7------------------------------------------|
D|-----------------------------------------------------|
A|-----------------------------------------------------|
E|-----------------------------------------------------|

 Bm                     G   
"Baby, you can drive my car,
Bm                  G   
Yes I'm gonna be a star.
Bm                     E   
Baby, you can drive my car,
    A       D         G  A  D7
And maybe I love you."        

D7                        G                D7
I told that girl I could start right away,   
                                  G                 D7
She said, "Listen, baby, I've got something to say.   
                       G                
I got no car and it's breaking my heart,
    A                                    
But I've found a driver, that's a start."

 Bm                     G   
"Baby, you can drive my car,
Bm                  G   
Yes I'm gonna be a star.
Bm                     E   
Baby, you can drive my car,
    A       D         G  A
And maybe I love you."    
                       D     G  A
Beep Beep   Beep Beep  yeahh     
                       D     G  A
Beep Beep   Beep Beep  yeahh     
                       D     G  A
Beep Beep   Beep Beep  yeahh     
                       D     G  A
Beep Beep   Beep Beep  yeahh     
If you like the way the song is edited, help us grow with your like please
More songs of The Beatles:
BlackBird And I Love Her A Hard Day's Night Anna (Go To Him) Don't Let Me Down She Loves You Twist And Shout Hey Jude Can't Buy Me Love Things We Said Today
More songs from the category Rock:
The Cure - Boys Don't Cry
Neil Young - Cinnamon Girl
Green day - Time of your life
Staind - Outside
Nirvana - Oh Me