Hide Commercials
Did you know?
No 'did you know', Add an info for this song
Muse - Unintended Chords
Ranking: 5.78 Sign Up and Rank!

Muse - Unintended

Author And Composer: Matthew Bellamy
Intro:

   E                                       
e|-----0-------------------------------0--|
B|-----0-------------2-1-0---------0---0--|
G|---------1-------1-------2---0h1---1----|
D|---2---2-------2------------------------|
A|-----------0h2--------------------------|
E|-0---------------------------0----------|

                    B7                               
e|--------------------------2---------------2-------|
B|---------2-1-0--------0-----0---------0-----0-----|
G|-------1-------2--------2-----2---------2-----2---|
D|-----2--------------1-----------1---1-----------1-|
A|-0h2--------------2---------------2---------------|
E|--------------------------------------------------|

E               Am        
You could be my unintended
D                 G            
Choice to live my life extended
C                B7              E   
You could be the one I'll always love

E                Am             
You could be the one who listens
D             G           
To my deepest inquisitions
C                B7              E   
You could be the one I'll always love

E                Am           
I'll be there as soon as I can
D            G             
But I'm busy mending broken
C             B7           E   
Pieces of the life I had before

E                   Am                
First there was the one who challenged
D                 G             
All my dreams and all my balance
C               B7            E  
She could never be as good as you

E               Am        
You could be my unintended
D/F#              G            
Choice to live my life extended
C                 B7              E/Ab E/G E/F#
You should be the one I'll always love         

E                Am           
I'll be there as soon as I can
D            G             
But I'm busy mending broken
C             B7           E   
Pieces of the life I had before
x2

E      Am  Am/G Am/F# Am/F E4  E
Before youuuuuuuuuuuuuuuuuuuuuuu
If you like the way the song is edited, help us grow with your like please
More songs of Muse:
I Belong to You
More songs from the category Familiar Songs:
Eric Clapton - Tears In Heaven
Tasmin Archer - Sleeping Satellite
Mariah Carey - Without You
Santana - Maria
David Bowie - Space Oddity