Hide Commercials
Did you know?
No 'did you know', Add an info for this song
The Beatles - Something Chords
Ranking: 6 Sign Up and Rank!

The Beatles - Something

Author And Composer: George Harrison
Intro:

   F         Eb  G  
e|-5-7b8b7-5--6--7-|
B|-----------------|
G|-----------------|
D|-----------------|
A|-----------------|
E|-----------------|

C                          Cmaj7  C7
Something in the way   she moves,   
                          F     F/E
Attracts me like no other lover.   
D7                         G      G/A G/B
Something in the way she woos me.        
  Am                      Am/Ab
I don't want to leave her now, 
    Am/G               D     F
you know I believe and how.   

Bridge:

   F         Eb  G  C  
e|-5-7b8b7-5--6--7--8-|
B|--------------------|
G|--------------------|
D|--------------------|
A|--------------------|
E|--------------------|

C                            Cmaj7  C7
Somewhere in her smile   she knows,   
                           F      F/E
That I don't need no other lover.    
D7                            G       G/A G/B G
Something in her style that shows me.          
  Am                      Am/Ab
I don't want to leave her now, 
    Am/G               D     F
you know I believe and how.   

Bridge:

   F         Eb  G    A  
e|-5-7b8b7-5--6--7--8s9-|
B|----------------------|
G|----------------------|
D|----------------------|
A|----------------------|
E|----------------------|

A             A/Ab              A/F#  A/E
You're asking me   will my love grow,    
         D     G        A   
I don't know,  I don't know.
A     A/Ab               A/F#  A/E
Stick around, and it may show,    
             D     G        C   
But I don't know,  I don't know.

Solo:

   C      Cmaj7                   C7             
e|----------------------------------------------|
B|-----8-----------8b10-8b10b8-----------8h10-8-|
G|-7h9---9-----7h9-------------9-----7h9--------|
D|----------------------------------------------|
A|----------------------------------------------|
E|----------------------------------------------|

                     F                        
e|-------8-8--10b8-10b12b10-8-----------8-8\-|
B|--8s10----------------------10----/10------|
G|-------------------------------------------|
D|-------------------------------------------|
A|-------------------------------------------|
E|-------------------------------------------|

  F/E      D7                       G            
e|----------------------------------------------|
B|----8-8\------------7-7--12b10--12b10-12b10-8-|
G|-/9-------2--4-2-/7---------------------------|
D|----------------------------------------------|
A|----------------------------------------------|
E|----------------------------------------------|

                      Am                  Am/Ab
e|----9-8-7-/12-11-10-------------------------|
B|--8-----------------------------------------|
G|------------------------9b7b9b7b9b7b9b7-5---|
D|--------------------------------------------|
A|--------------------------------------------|
E|--------------------------------------------|

                     Am/G 
e|-----------------------|
B|-----------------------|
G|-9b7b9b7b9b7b9b7-5-----|
D|-----------------------|
A|-----------------------|
E|-----------------------|

                    D            F          Eb G 
e|-----------------12-10-8h10-8-----7b8b7-5--6-7|
B|---------------8--------------10--------------|
G|-9b7b9b7-5-7s9--------------------------------|
D|----------------------------------------------|
A|----------------------------------------------|
E|----------------------------------------------|

C                        Cmaj7  C7
Something in the way she knows,   
                        F            F/E
And all I have to do is think of her.   
D7                          G         G/A G/B G
Something in the things she shows me.          
  Am                      Am/Ab
I don't want to leave her now, 
    Am/G               D     F
you know I believe and how.   

Ending:

   F     Eb  G  A   F             Eb G    C  
e|-5-8-5--6--7--9------5-7b8b7-5--6--7--7s8-|
B|--------------------------------------7s8-|
G|------------------------------------------|
D|------------------------------------------|
A|------------------------------------------|
E|------------------------------------------|
If you like the way the song is edited, help us grow with your like please
More songs of The Beatles:
Things We Said Today Ob-La-Di, Ob-La-Da She Loves You Anna (Go To Him) While My Guitar Gently Weeps This boy In My Life Yesterday Baby It's You Oh! Darling
More songs from the category Rock:
Nickelback - Hero
Alice In Chains - Down In A Hole
The Beatles - We Can Work It Out
The Beatles - Cry Baby Cry
Aerosmith - Don't Wanna Miss A Thing