Hide Commercials
Did you know?
No 'did you know', Add an info for this song
Dick Dale - Misirlou Chords
Ranking: 5.74 Sign Up and Rank!
Part 1:

e|-----------------------------------------|
B|-----------------------------------------|
G|-----------------------------------------|
D|-----------------------------------------|
A|-12\-------------------------------------|
E|-----0-0-0-0-0-0-0-0-0-0-0-0-0-0-0-0-0-0-|

e|-------------------------------------|
B|-------------------------------------|
G|-------------------------------------|
D|-------------------------------------|
A|-------------------------------------|
E|-0-0-1-1-4-4-4-4-5-5-5-5--7-7-7-7-8-8|

             E                            
e|---------------------------------------|
B|---------------------------------------|
G|---------------------------------------|
D|---------------------------------------|
A|---------------------------------------|
E|-11-11-8-0-7-7-7-7-7-7-7-7-7-7-7s5s4s1-|

   E                                        
e|-----------------------------------------|
B|-----------------------------------------|
G|-----------------------------------------|
D|-----------------------------------------|
A|-----------------------------------------|
E|-0-0-0-0-0-0-0-0-0-0-0-0-0-0-0-0-0-0-0-0-|

   E                                           
e|--------------------------------------------|
B|--------------------------------------------|
G|--------------------------------------------|
D|--------------------------------------------|
A|--------------------------------------------|
E|-1-1-4-4-4-4-5-5-5-5-7-7-7-7-8-8-11-11-8-0-7|

   E                              
e|-------------------------------|
B|-------------------------------|
G|-------------------------------|
D|-------------------------------|
A|-------------------------------|
E|-7-7-7-7-7-7-7-7-7-7-7-7-7-7-7-|

   F                                     
e|--------------------------------------|
B|--------------------------------------|
G|--------------------------------------|
D|--------------------------------------|
A|--------------------------------------|
E|-8--7h8p7--8-7-7-7-7-5-5-5-5-7--5h7p5-|

   F                 E                      
e|-----------------------------------------|
B|-----------------------------------------|
G|-----------------------------------------|
D|-----------------------------------------|
A|-----------------------------------------|
E|-7-5-5-5-5-4-4-0-0-4-4-4-4-4-4-4-4-4-4-4-|

     F                       
e|--------------------------|
B|--------------------------|
G|--------------------------|
D|--------------------------|
A|--------------------------|
E|-0-7-7-7-7-5-5-7-7-5h7p5--|

                                    E        
e|------------------------------------------|
B|------------------------------------------|
G|------------------------------------------|
D|------------------------------------------|
A|------------------------------------------|
E|-4-4-4-4-4-5-5-5-5-4-5-4h5p4--1-4-0-0-0-0-|

Part 2:

                   E                                            
e|-12\11\8\7\5\4\1-0-0-0-0-0-0-0-0-0-0-0-0-0-0-0-0-0-0-0-0-1-1-|
B|-12\11\8\7\5\4\1---------------------------------------------|
G|-------------------------------------------------------------|
D|-------------------------------------------------------------|
A|-------------------------------------------------------------|
E|-------------------------------------------------------------|

   E                                                                  
e|-4-4-4-4-5-5-5-5-7-7-7-7-8-8-11-11-8-0-7-7-7-7-7-7-7-7-7-7-7s5s4s1-|
B|-------------------------------------------------------------------|
G|-------------------------------------------------------------------|
D|-------------------------------------------------------------------|
A|-------------------------------------------------------------------|
E|-------------------------------------------------------------------|

   E                                                            
e|-0-0-0-0-0-0-0-0-0-0-0-0-0-0-0-0-0-0-0-0-1-1-4-4-4-4-5-5-5-5-|
B|-------------------------------------------------------------|
G|-------------------------------------------------------------|
D|-------------------------------------------------------------|
A|-------------------------------------------------------------|
E|-------------------------------------------------------------|

   E                                                      
e|-7-7-7-7-8-8-11-11-8-0-7-7-7-7-7-7-7-7-7-7-7-7-7-7-7-7-|
B|-------------------------------------------------------|
G|-------------------------------------------------------|
D|-------------------------------------------------------|
A|-------------------------------------------------------|
E|-------------------------------------------------------|

   F                                     
e|-8--7h8p7--8-7-7-7-7-5-5-5-5-7--5h7p5-|
B|--------------------------------------|
G|--------------------------------------|
D|--------------------------------------|
A|--------------------------------------|
E|--------------------------------------|

                     E                      
e|-7-5-5-5-5-4-4-0-0-4-4-4-4-4-4-4-4-4-4-4-|
B|-----------------------------------------|
G|-----------------------------------------|
D|-----------------------------------------|
A|-----------------------------------------|
E|-----------------------------------------|

     F                                                       E        
e|-0-7-7-7-7-5-5-7-7-5h7p5--4-4-4-4-4-5-5-5-5-4-5-4h5p4--1-4-0-0-0-0-|
B|-------------------------------------------------------------------|
G|-------------------------------------------------------------------|
D|-------------------------------------------------------------------|
A|-------------------------------------------------------------------|
E|-------------------------------------------------------------------|

Part 3:

                   Am         G          F            E  
e|----------------------------7--------7-8--7-8-11---12-|
B|-------------8-9-10----8-10-------10------------------|
G|-9-8-9-10-11------------------------------------------|
D|------------------------------------------------------|
A|------------------------------------------------------|
E|------------------------------------------------------|

    F                                                   E  
e|-13-12-13-12--13p12p10--12-13p12p10-12-10--12p10--------|
B|-------------------------------------------------13--12-|
G|--------------------------------------------------------|
D|--------------------------------------------------------|
A|--------------------------------------------------------|
E|--------------------------------------------------------|

 F                                     E                        
e|-10----10----10----------------------------------------------|
B|----13----13----13-12---12-9-12-9---------------------8-9-10-|
G|----------------------------------10-9----9-8-9-10-11--------|
D|-------------------------------------------------------------|
A|-------------------------------------------------------------|
E|-------------------------------------------------------------|

Part 4:

e|-----------------------------------------------------------------|
B|-----------------------------------------------------------------|
G|-----------------------------------------------------------------|
D|-----------------------------------------------------------------|
A|-----------------------------------------------------------------|
E|-5-5-5-5-5-5-5-5-5-5-5-5-5-5-4-4-5-5-7-7-7-7-7-7-7-7-7-7-7-7-7-7-|

                                                   E                       
e|------------------------------------------------------------------------|
B|------------------------------------------------------------------------|
G|------------------------------------------------------------------------|
D|------------------------------------------------------------------------|
A|------------------------------------------------------------------------|
E|-5-5-7-7-8-8-8-8-8-8-7-7-8-8-11-11-11-11-8-11-0-12-12-12-12-12-12-12-12-|

   F                                                    E          
e|----------------------------------------------------------------|
B|----------------------------------------------------------------|
G|----------------------------------------------------------------|
D|----------------------------------------------------------------|
A|-13-13-12-13-12h13p12-10-10-10-10-12-10h12p10-8-8-8-8-7-7-7-7-7-|

                 F                                     
e|----------------------------------------------------|
B|----------------------------------------------------|
G|----------------------------------------------------|
D|----------------------------------------------------|
A|----------------------------------------------------|
E|-7-7-7-7-7--0-10-10-10-10-8-8-10-10-8-8-8-8-7-7-7-7-|

                     E                       
e|------------------------------------------|
B|------------------------------------------|
G|------------------------------------------|
D|------------------------------------------|
A|------------------------------------------|
E|-7-5-7-4-4-4-4-1-1-0-0-0-0-0-0-0-0-0-0-0--|

Repeat Part 2
If you like the way the song is edited, help us grow with your like please
More songs of Dick Dale:
More songs from the category Rock:
Useless ID - Turn up the stereo
The Lumineers - Ho Hey
Jack Johnson - If I Had Eyes
The Turtles - You Showed Me
Hozier - Take Me To Church