Heart-Shaped Box chords by Nirvana

Author And Composer:Kurt Cobain
Strumming:

Rock
Easy Version
Intro and verses:

   Abm      E       C#                
e|-----------------------------------|
B|-----------------------------------|
G|-----------------------------------|
D|-----6--------2--------------------|
A|---6---6----2---2--4----4------4---|
E|-4--------0------------------4---4-|

  Abm       E        C#                 
e|-------------------------------------|
B|-------------------------------------|
G|-------------------------------------|
D|-----6--------2------1s3-3-3-3-3-3---|
A|---6---6----2---2--4-----------2-2-4-|
E|-4--------0----------------4---------|

Abm E       C#            Abm 
She eyes me like a pisces when
E    C#    Abm
I am weak     
          E        C#                     Abm
I've been locked inside your Heart Shaped box
E   C#    Abm
for weeks    
           E      C#             Abm
I've been drawn into your magnet tar
E    C#   Abm
pit trap     
       E       C#              Abm 
I wish I could eat your cancer when
E        C#    Abm
you turn black    

Chorus:

Abm  E       C#                    B     Abm
Hey!    Wait!   I've got a new complaint    
   E       C#                       Abm 
Forever in debt to your priceless advice
Abm  E       C#                    B     Abm
Hey!    Wait!   I've got a new complaint    
   E       C#                       Abm 
Forever in debt to your priceless advice
Abm  E       C#                    B     Abm
Hey!    Wait!   I've got a new complaint    
   E       C#                       E     C#
Forever in debt to your priceless advice    
       E     C# B Abm
your advice          

Abm  E      C#              Abm
Meat-eating orchids forgive no 
E        C#    Abm
one just yet      
Abm   E       C#             Abm E   C#    Abm
Cut myself on Angel Hair and  babys breath    
Abm    E     C#               Abm
Broken hymen of your highness I'm
E     C#    Abm
left  black    
Abm   E           C#                    Abm
Throw down your umbilical noose so I can   
      E       C#    Abm
climb   right back     

Repeat Chorus

Solo: x2

   Abm         E           C#                Abm
e|---------------------------------------------|
B|------7b9b7------5b7b5--------4b5-4-2--------|
G|---------------------------------------4-3---|
D|-6-6---------4-4---------2-2-----------------|
A|---------------------------------------------|
E|---------------------------------------------|

Abm E      C#            Abm 
She has me like a pisces when
E    C#    Abm
I am weak     
Abm       E        C#                     Abm
I've been locked inside your Heart-Shaped box
E   C#    Abm
for weeks    
Abm        E      C#             Abm
I've been drawn into your magnet tar
E    C#    Abm
pit trap      
Abm    E        C#              Abm 
I wish I could  Eat your cancer when
E        C#    Abm
you turn black    
Abm  E       C#                    B     Abm
Hey!    Wait!   I've got a new complaint    
   E       C#                       Abm 
Forever in debt to your priceless advice
Abm  E       C#                    B     Abm
Hey!    Wait!   I've got a new complaint    
   E       C#                       Abm 
Forever in debt to your priceless advice
Abm  E       C#                    B     Abm
Hey!    Wait!   I've got a new complaint    
   E       C#                       E     C#
Forever in debt to your priceless advice    
       E     C#         E    C#        E    C#
your advice      your advice    your advice   
Bridge:
Abm E Abm Abm x4

Ending:
Bridge:
Abm E Abm Abm x4

e|--------------|
B|--------------|
G|--------------|
D|-3-3-3-3------|
A|---------2-2~-|
E|--------------|
Nirvana
Smells Like Teen SpiritTerritorial PissingsPennyroyal TeaAll ApologiesThe Man Who Sold The WorldOh MeSomething in the wayBreedPollyIn Bloom
Rock
Jack Johnson - Upside Down
The Beatles - While My Guitar Gently Weeps
Scorpions - Send Me An Angel
Leonard Cohen - Everybody Knows
The Beatles - Love me do
Heart-Shaped Box Replies
Login To reply - Sign up \ Login