Hide Commercials
Did you know?
No 'did you know', Add an info for this song
אינפקציה - התגעגעתי Chords
Ranking: 5.88 Sign Up and Rank!

אינפקציה - התגעגעתי

Category: לא הוגדר
פתיחה:
Bb Bb Dm Eb x2

               Bb      
אני נורא התגעגעתי אלייך
Bb   Eb     Dm      Bb       
היא אומרת ומצמידה את גופה החם
           Bb 
אלי מועבת שדיה
F Em Dm              Bb
משהו בתוכי מתקומם      

 F  
אולי
Am Em   Dm         Gm  Eb   C  
אולי תבוא אליה היא שואלת לארוחה
  Gm   Eb   C    F      Bb 
אחר כך אפשר לצפות ביחד בסרט
  G          C              Dm
משהו בתוכי לי אומר שזה לא כדאי

מעבר:

       Eb          Bb             Cm   D       
e|--------------------------------------------|
B|--------------------------------------------|
G|-5-7-8-----------5-7-7----5-7-8---------5-5-|
D|--------8--8---8----------------8---7-8-----|
A|--------------------------------------------|
E|--------------------------------------------|

      Eb            Bb             Cm   
e|-------------------------------------|
B|-------------------------------------|
G|--------------------5-7-7---5-7-8----|
D|----8-7-5--8-8-8--8---------------8--|
A|-------------------------------------|
E|-------------------------------------|

    D           Eb       F      A9 
e|--------------------------------|
B|--------------------------------|
G|-----5-5----------------------4-|
D|-7-8------8-7-5-----5-7---5-7---|
A|------------------8-------------|
E|--------------------------------|

 Am  Em     Dm     Gm  Eb     C    F  
חוזר אליה בשמונה בערב תעשה לי נעים בגב
  Gm    Eb    C    F   Bb
אני מיד נרתם לעשות כדבריה
  G             C            Dm  
אחרי הכל אני תאומים והיא מזל עקרב
   Dm      Gm    Eb     C    F  
הקרב שלי עם עצמי נמשך לאיזה סרט 
         Eb       C     F   Bb  Am   Em
אני נגנב שעל פניו נראה שהיא לא מעוניינת

אותו מעבר...

   Gm  Eb  C    F      
אני נורא התגעגעתי אלייך
 Bb Am    Em    Dm
אה הא אה הא אה הא 
x4
If you like the way the song is edited, help us grow with your like please
More songs of אינפקציה:
More songs from the category לא הוגדר:
אחרית הימים - העץ הוא גבוה
יזהר אשדות - הי את
מאיר בנאי - לפלח הרימון
בניה ברבי - אל תשאלי
זוהר ארגוב - כך עוברים חיי