My Songs
My Songs
Hide Commercials
Did you know? No 'did you know', Add an info for this song
אהרון רזאל ושולי רנד - עולה בשביל Chords
Ranking: 5.98 Sign Up and Rank!

אהרון רזאל ושולי רנד - עולה בשביל

Author And Composer: אהרון רזאל
Reset
size
<<
  G C     G       G C    G  
עולה   בשביל   אותו מי יעצור
  G     C   G     A7     Em 
הליל   ירד   כוכב יתן לו אור
Em     B7         C      D
סלע  יהיה מחסה  בארץ עייפה
G C  G    C   G        D7        A7 
בכל מקום  שבו תהיה  בצל האל הנך

  G C     G      G C   G C
עלה   נופל   אותו מי יאסוף
  G   C   G     A7 Em
הנחלים   בדרך אל החוף
Em      B7          C    D 
מנחל בדרך שתה  ושלח את לחמך
G7    G   C   G         D7       A7 
בכל מקום שבו תהיה   בצל האל תמיד הנך

פזמון:

  E     Bm      Am         C 
ואם יבלו בגדיך   סנדל שלרגליך
G7  G   C   G          D7    A7 
חמה האדמה ושוב   נפקחת עין עצומה
  E        Bm          Am        C  
ועדיין לא מצאת   את הניגון אליו יצאת
G C  G       D7   A7     
אך יודע שבצל האל הנך

  G C   G     G C    G  
עוצר   נושם   הרוח מעליו
  G     C    G   A7     Em  
איבד   דרכו  וגם ריקים כיסיו
Em         B7         C       D 
הכח לא נגמר בך, עייפו שרירי גופך
G7  G    C   G           D7      A7 
ומישהו מחזיק אותך    בצל האל הנך

  G         C     G      C   
כל יום   אתה   חכם מיום אתמול
 G       Cm     Em     B7 
מלא    לבך   וזכור למי הכל
Em        B7           C     D     
לכל מקום שאדם הולך   ימצא את תיקונו
G7    G   C    G          D7        A7 
אפילו איש פשוט מאד   מוצא דרכו אצל קונו

פזמון

סולו:

             G    G  C          B7             Em 
e|-----------------------------------------------|
B|-----8-10b12---13-12--12b10p8-10--8-10-10b12-8-|
G|-7h9-------------------------------------------|
D|-----------------------------------------------|
A|-----------------------------------------------|
E|-----------------------------------------------|

           G            G7                  Am                 Am/D  
e|---------------------------------10-------------15----------------|
B|------------------8------8-10s12----10s8--15b17----17b15-15b17-15-|
G|-9p7---------7--9----7h9------------------------------------------|
D|-----7s5-7s9------------------------------------------------------|
A|------------------------------------------------------------------|
E|------------------------------------------------------------------|

          C               Am            Bm             Em      
e|-15-15-12--10-12----------------------10---9-10------10--12-|
B|------------------12b13b12--10--12-13-------------12--------|
G|-12-12------------------------------------------------------|
D|------------------------------------------------------------|
A|------------------------------------------------------------|
E|------------------------------------------------------------|

         Am            D7                G    C G  
e|-12-12-15--12---------------10------------------|
B|--------------13--10-12--10-----10b12--8--------|
G|------------------------------------------------|
D|------------------------------------------------|
A|------------------------------------------------|
E|------------------------------------------------|

E E4  Dm          Bm     Em  
עומד   מולך   נשארתי פה לבד
 E4  Bm    G   Bm     Em    B B4      Cmaj7  G Dm  Am
ומבקש      עשה שלא אפחד    זוכר   ניגנו שנינו את השיר
Em  B7   C       F         G   Am  
עכשיו העיר ריקה  ואתה   בצל האל הנך

  G C     G      G C   G C
עלה   נופל   אותו מי יאסוף
  G   C   G     A7 Em
הנחלים   בדרך אל החוף
Em      B7          C    D 
מנחל בדרך שתה  ושלח את לחמך
G    C   G         D7       A7    
כי בכל מקום שבו תהיה   בצל האל הנך

סיום:
G G Em G x2
If you like the way the song is edited, help us grow with your like please
More songs of אהרון רזאל:
More songs from the category שירים חסידיים:
ארז לב ארי - רק תאמין
יוסף חיים שוואקי - חזור בך
שולי רנד - מוחין דקטנות
אוף שימחעס - אמא
אהרון רזאל ומרדכי בן דוד - להיות בשמחה תמיד