Easy Version
Eadd9: 0241xx

First verse:

  Eadd9               F#m                        
e|---0-------------------2---2-----2----4-2h4p2-|
B|--0-------------------2---------2----2--------|
G|-1---------1---------2---------2----2---------|
D|---------4----------4----4----3----2----------|
A|-------2--------------------------------------|
E|-----0----------------------------------------|

   E                                      
e|---------------------------------------|
B|---------5-5p4--4----------------------|
G|-------4------6---6p4--4---------------|
D|-----6----------------7--7-6-4-------4-|
A|---7-------------------------------7---|
E|-0------------------------------0------|

  Abm                      C#m7  B7 
e|--4----------4--2h4p2----4-----7-|
B|--4----------2--2--------5-----7-|
G|--4----------2--2--------6-----8-|
D|--6--------2-------------6-----9-|
A|--6------4---------------4-----9-|
E|--4----2-----------------------7-|

Eadd9                       
Pienso que un sueno parecido
           F#m
No volvera mas
F#m                   
Y me pintaba las manos
             E  
Lon cara de azul
                  Abm   
Y de improviso el viento
           F#m 
Rapido me llevo
          C#m7                B7   
Y me hizo volar   en cielo infinito

Chorus:

  F#m        B7
Volare    oh oh
   E              C#m
Cantare   oh oh oh oh
    F#m     B7        E 
Nel blu   dipinto di blu
  F#m       B7      E  
Felice   di stare lassu

    C#m                
Y volando volando feliz
      Abm               
Yo me encuentro mas alto
Abm                
Mas alto que el sol
     Ab7                  
Mientras el mundo se aleja
            C#m
Despacio de ti 
    Am          
Una musica dulce
                 G  B7
Tocada solo para mi   

Repeat Chorus

Solo 1:

   E                                        
e|-----------------------------------------|
B|--------5-5-5-7-7-7-7----9-9-9---10p9h10-|
G|-----------------------------------------|
D|-----6-----------------------------------|
A|---7-------------------------------------|
E|-0---------------------------------------|

    E                                 
e|-12p11----11-9-----9---------------|
B|-------12-------10----12--9--12-10-|
G|-----------------------------------|
D|-----------------------------------|
A|-----------------------------------|
E|-----------------------------------|

    E                              
e|--------------------------------|
B|----10-9--9----9-----------9----|
G|-11---------11----8--9--11----9-|
D|--------------------------------|
A|--------------------------------|
E|--------------------------------|

E                           
Pienso que un sueno parecido
           F#m
No volvera mas
B7                    
Y me pintaba las manos
             E  
Lon cara de azul
                  Abm   
Y de improviso el viento
           F#m 
Rapido me llevo
           C#m               B7  
Y me hizo volar en cielo infinito

Repeat Chorus

Solo 2:

      C#m                        Abm        
e|-----------------------------------------|
B|---------------------7-------------------|
G|-6-8-9--6-8-9--6-8-9----9p8p6--8p6-------|
D|-----------------------------------9---9-|
A|-----------------------------------------|
E|-----------------------------------------|

        Ab7                       C#m           
e|---------------------------------------------|
B|------------------------10-9----9p7----------|
G|-9--9-11-8-9-11--8-9-11------11-------9p8----|
D|------------------------------------------11-|
A|---------------------------------------------|
E|---------------------------------------------|

Bridge:
       Am                       G          B7

e|------------------------------------------|
B|------------------------------------------|
G|-7-7-9p7-----7-9p7------4-5p4-5p4-5p4p2h4-|
D|---------10--------10---------------------|
A|------------------------------------------|
E|------------------------------------------|

Repeat Chorus

Pienso que un sueno....

Repeat Chorus
Bridge:
Abm Eadd9 Eadd9 E x4

    F#m     B7        E 
Nel blu   dipinto di blu
  F#m       B7      E  
Felice   di stare lassu
X4
Bridge:
Abm Eadd9 Eadd9 E x4

    F#m     B7        E 
Nel blu   dipinto di blu

Ending:
Eadd9 E Abm Eadd9 x4
Gipsy Kings
PresidenteBamboleoBaila Meun amor Amor Mio
שירים עם סולו גיטרה
Gipsy Kings - Volare
Jimi Hendrix - Little Wing
Aris San - Dam Dam
Guns N' Roses - Patience