Hide Commercials
Did you know? No 'did you know', Add an info for this song
עספור - עולם ורוד Chords
Ranking: 5.96 Sign Up and Rank!
Reset
size
פתיחה ובמהלך השיר - גיטרה: x4

e|----------------------------|
B|----------------------------|
G|---------------------5h6p5--|
D|----------------------------|
A|-3--3-3--3-3-3-3--3---------|
E|----------------------------|

e|-----------------------------|
B|-----------------------------|
G|-----------------------5h6---|
D|---------------------------5-|
A|-3--3-3--3-3-3-3--3-3--------|
E|-----------------------------|

קלידים (מהפעם השלישית):

e|--------------------3-4-3-4---------3-|
B|------------5-6-5-----------6--5--6---|
G|-5-6-5-6-5----------------------------|
D|--------------------------------------|
A|--------------------------------------|
E|--------------------------------------|

e|--------------------3-4-3-4---------------|
B|------------5-6-5-----------6--5--6-5-----|
G|-5-6-5-6-5----------------------------6-5-|
D|------------------------------------------|
A|------------------------------------------|
E|------------------------------------------|

                                           C5
אם לא גרדת כרטיס מזל   אל תבוא לאלוהים בטענות
              C5     
כשהדמעות בגרון עומדות
F5                           
עדיף תשתוק שלא תתחיל לבכות   
                                     F5
גם תרנגול עיוור   אומרים בסוף ימצא גרגר
                       C5  
מפזר לעספור זרעים שתגיעה   
C5                     G5 
אבל בינתיים, יאללה תניע!   

פזמון:

                                          C5
לא רוצה למות, רוצה לחיות   לעשן, לפרק, לשתות
                                     C5
זה מה שבא לי לעשות   אני עספור מהשכונות
                                      C5
לא רוצה למות, רוצה לחיות    להפריח טבעות
                                  C5
דרך עיניים אדומות    רואים עולם ורוד
 C5                     F5
אה    אה   אה    עולם ורוד!

מעבר:

 C5          
(יאס על העולם)
                                             C5
כשמפרקים עצים עפים שבבים    שמן ומים לא מתחברים
F5                                              C5
כל המדינה מכון ליווי    בתוך קזינו של בית תמחוי   
                                             F5  
החיים זה כמו בונבונירה     מה בפרלין אין איש יודע
                     F5
מפזר לעספור זרעים שתגיע
C5                        G5    
כבר שרת את זה, נו יאללה תניע!    

                                          C5
לא רוצה למות, רוצה לחיות   לעשן, לפרק, לשתות
                                     C5
זה מה שבא לי לעשות   אני עספור מהשכונות
                                      C5
לא רוצה למות, רוצה לחיות    להפריח טבעות
                                  C5
דרך עיניים אדומות    רואים עולם ורוד
                                   C5      
אני עספור ולא אכפת לי   אני עספור וככה באתי
                                      C5
אני עספור של השכונות   אני אהוב כל הבנות

פזמון

מעבר

                                   C5      
אני עספור ולא אכפת לי   אני עספור וככה באתי
                                      C5
אני עספור של השכונות   אני אהוב כל הבנות
Eb                          Fm
יא בינת אל סולטן   איפה רמת גן?
 C                 C#               
אין כמו אום אל פאחם    הכי טוב בעולם
If you like the way the song is edited, help us grow with your like please
More songs of עספור:
More songs from the category שירים מהטלוויזיה-קולנוע:
עפרה חזה - שיר הפריחה
עספור - עולם ורוד
שייגעצ - המילים הכי יפות
הבטלנים - שיר הבטלנים
שונות - סיינפלד