My Songs
My Songs
Hide Commercials
Did you know? No 'did you know', Add an info for this song
חוה אלברשטיין - חיוכים Chords
Ranking: 6.02 Sign Up and Rank!

חוה אלברשטיין - חיוכים

Author: לאה נאור
Composer: אנחל קבראל
Song Editor: TAB4U Staff
Category: פלאמנקו
Strumming:
To view the Strumming you must be a logged in userSign up \ Login
Reset
size
פתיחה:

   Am                              Em      
e|-12-12--14-14---12-12---14-14----12-12--|
B|----------------------------------------|
G|----------------------------------------|
D|----------------------------------------|
A|----------------------------------------|
E|----------------------------------------|

                           B7                   
e|-14-14---12-12---14-14--11-11--14-14---11-11-|
B|---------------------------------------------|
G|---------------------------------------------|
D|---------------------------------------------|
A|---------------------------------------------|
E|---------------------------------------------|

             Em                 Am            
e|--14-14----12--------------11-12-12--14-14-|
B|---------------12-13-14-15-----------------|
G|-------------------------------------------|
D|-------------------------------------------|
A|-------------------------------------------|
E|-------------------------------------------|

                  Em                             
e|-12-12--14-14---12-12---14-14---12-12---14-14-|
B|----------------------------------------------|
G|----------------------------------------------|
D|----------------------------------------------|
A|----------------------------------------------|
E|----------------------------------------------|

   B7                              Em     
e|-11-11--14-14---11-11---14-14-11-12-12-|
B|---------------------------------------|
G|---------------------------------------|
D|---------------------------------------|
A|---------------------------------------|
E|---------------------------------------|

    Am              Em         
אם עולה השמש ובכל בוקר חדשה היא
 G                    D7      
אם הפרחים סתם מחייכים אל העולם
 Em             B7           
אם מתגלגל הגל  מצחוק עד השמים
B7                Am           
אז למה גם אנחנו לא נצחק עם כולם?

 Am               Em             
אם יש עוד קרקסים וליצנים ולא בספר
  G                 D7           
אם צחוק הילדים נשמע צלול ולא רחוק
 Em                 B7            
צוחק השוק, הים, הפעמון של בית הספר
 Em        B7     Am           
אז למה גם אנחנו   לא נלמד לצחוק?

פזמון:

          G                    D7             
כדאי, כדאי ללמוד   מן הפרחים  לא לקמץ  בחיוכים
  G                      D7    
והעולם, תראו, יהיה פתאום כה טוב
  C                 B7       
כדאי לחלום ולקוות, נסו רק פעם
 B7                      Am       
כדאי לצחוק, כדאי לחיות, כדאי לאהוב
           G                      D7          
כדאי גם לחייך, מותר לכעוס  אך בזהירות לא להרוס
  G                      D7       
אפשר לרקום   חלום נפלא  ביום סגריר
   C                     B7             
הכל יהיה עוד טוב  יותר ודאי, אבל בינתיים
 Am     B7              Am       
אפשר לבכות ללא סיבה, אפשר גם לשיר

מעבר כמו הפתיחה

   Am                  Em          
אדם הולך בעיר והיא שלו  והיא זרה לו
 G                 D7       
והוא שותק   והעולם כולו שותק
   Em                   B7       
לפתע בדיוק מולו תינוקת התחייכה לו
B7                Am        
והאדם צוחק  והעולם כולו צוחק

 Am              Em           
ושוב נושקת שמש את העיר המאוהבת
  G                D7         
גל שובב וקל נושק לסלע שוב ושוב
 Em             B7           
האור נושק לצל והפסים את הרכבת
 Em         B7           Am          
רק אנו שוכחים   מה שכל כך  כל כך חשוב

פזמון

סיום:
מעבר:
Em Em Am B7 x4

   Am                              Em                             
e|-12-12--14-14---12-12---14-14----12-12---14-14---12-12---14-14-|
B|---------------------------------------------------------------|
G|---------------------------------------------------------------|
D|---------------------------------------------------------------|
A|---------------------------------------------------------------|
E|---------------------------------------------------------------|
מעבר:
Em Em Am B7 x4

   B7                              Em                  
e|-11-11--14-14---11-11---14-14----12--12-12-12-12-12-|
B|----------------------------------------------------|
G|----------------------------------------------------|
D|----------------------------------------------------|
A|----------------------------------------------------|
E|----------------------------------------------------|
More songs of חוה אלברשטיין:
More songs from the category פלאמנקו:
הדורבנים - צידו האחר
דיויד ברוזה - סיגליות
Gipsy Kings - Bamboleo
ישי לוי - אבדן התמימות
דיויד ברוזה - טיו אלברטו