Hide Commercials
Did you know?
No 'did you know', Add an info for this song
Buena Vista Social Club - Chan Chan Chords
Ranking: 5.76 Sign Up and Rank!
Intro & during the song:

   Dm   F    Gm    A7   Dm  
e|-5----1---------------5--|
B|-6----1----5----------6--|
G|-7----2-------7--6----7--|
D|-------------------------|
A|-------------------------|
E|-------------------------|

   F          Gm    A7 
e|-1--5---------------|
B|-1----6-----5-------|
G|-2------5-7----7--6-|
D|--------------------|
A|--------------------|
E|--------------------|

          Dm    F         Gm    A7  
e|-5-------5----1-----5------------|
B|---8-6-5-6----1---6---6-5--------|
G|---------7----2------------7--6--|
D|---------------------------------|
A|---------------------------------|
E|---------------------------------|

   Dm         F              
De Alto Cedro voy para Marcan?
   Gm         A7             
Llego a Cueto voy para Mayar?

Bridge:
Dm F Gm A7

   Dm         F              
De Alto Cedro voy para Marcan?
   Gm         A7             
Llego a Cueto voy para Mayar?

Bridge:
Dm F Gm A7 

   Dm         F              
De Alto Cedro voy para Marcan?
   Gm         A7             
Llego a Cueto voy para Mayar?

Bridge:
Dm F Gm A7

Dm       F           
El cario que te tengo
Gm          A7      
No te lo puedo negar
Dm         F        
Se me sale la babita
Gm          A7       
Yo no lo puedo evitar

Repeat Bridge x2

Dm          F             
Cuando Juanica y Chan Chan
Gm             A7      
En el mar cernian arena
Dm       F         
Como sacuda el jibe
Gm             A7       
A Chan Chan le daba pena

Repeat Bridge x2

Dm            F         
Limpia el camino de paja
Gm            A7       
Que yo me quiero sentar
Dm        F            
En aquel tronco que veo
Gm         A7       
Y as no puedo llegar

Repeat Bridge x2

   Dm         F              
De Alto Cedro voy para Marcan?
   Gm         A7             
Llego a Cueto voy para Mayar?

Bridge:
Dm F Gm A7

   Dm         F              
De Alto Cedro voy para Marcan?
   Gm         A7             
Llego a Cueto voy para Mayar?

Bridge:
Dm F Gm A7

   Dm         F              
De Alto Cedro voy para Marcan?
   Gm         A7             
Llego a Cueto voy para Mayar?

Ending:
Dm F Gm A7
If you like the way the song is edited, help us grow with your like please
More songs of Buena Vista Social Club:
More songs from the category Exciting Song:
Skeeter Davis - End Of The World
Guns N' Roses - November Rain
Eric Clapton - Wonderful Tonight
Mariah Carey - Without You
Incubus - Drive