Hide Commercials
Did you know?
No 'did you know', Add an info for this song
The Corrs - Only When I Sleep Chords
Ranking: 5.96 Sign Up and Rank!

The Corrs - Only When I Sleep



Intro:

   Bm               D                        
e|------------------------------------------|
B|-----------------------------------12p10--|
G|---------9-9/11~~---------9-9/11~~--------|
D|-9-11/12----------9-11/12-----------------|
A|------------------------------------------|
E|------------------------------------------|

           E                   Em A      
e|--------------------------------------|
B|--------------------------------------|
G|-11p9-7-7h9-9s11-------7-9-9h11-------|
D|-----------------9~~-9----------7~~-9-|
A|--------------------------------------|
E|--------------------------------------|

Bm     A            E       
You're only just a dreamboat
              Bm  
Sailing in my head
    A              E    
You swim my secret ocean
                  Bm 
Of coral blue and red
     A                E      
Your smell is incense burning
                     G  
Your touch is silken yet
                      D   
It reaches through my skin
                G 
Moving from within
G                        
And clutches at my breast

Chorus:

                     Bm   
But it's only when I sleep
                 D    
I see you in my dreams
                E              
Got me spinning round and round
        Em     A   
Turning upside down
                    Bm     
But I only hear you breathe
                 D   
Somewhere in my sleep
                E              
Got me spinning round and round
        Em     A   
Turning upside down
A                         
But it's only when I sleep

Bm         A         E      
And when I wake from slumber
              Bm         
Your shadow's disappeared
     A                E       
Your breath is just a sea mist
               Bm  
Surrounding my body
    A                   E      
I'm working through the daytime
                      G   
But when it's time to rest
                D  
I'm lying in my bed
                G     
Listening to my breath
G                    
Falling from the edge

Repeat chorus

                      D   
But it's only when I sleep
          D                                   
Yeah Yeah Yeah  Yeah Yeah Yeah  Yeah Yeah Yeah

Solo:

  Bm                                          D              
e|14------------------------------------10-12-14------------|
B|---12-12-10-12--12-10-12--12-10-12-14----------12-12-10-12|
G|----------------------------------------------------------|
D|----------------------------------------------------------|
A|----------------------------------------------------------|
E|----------------------------------------------------------|

                       E                             
e|------19-17-14-12-10-12-14------------------------|
B|12-10----------------------12-12-10-12---12-10-12-|
G|--------------------------------------------------|
D|--------------------------------------------------|
A|--------------------------------------------------|
E|--------------------------------------------------|

                    Em                 A                  
e|------------10-12-14-14/15-14--14\12----------------|--|
B|12-10-12-14--------------------------12-12h14-12----|--|
G|-------------------------------------------------14-|x2|
D|----------------------------------------------------|--|
A|----------------------------------------------------|--|
E|----------------------------------------------------|--|

(Up to the sky, where eagles fly)
(I'll never die, hawaiian high)

                          D  
It's reaching through my skin
                G 
Moving from within
G                           
And clutches at my breast...

Repeat chorus

(In bed I lie, no need to cry)
(My sleeping cry, hawaiian high)
(Up to the sky, where angels fly)
(I'll never die, hawaiian high)
If you like the way the song is edited, help us grow with your like please
More songs of The Corrs:
More songs from the category Rock:
Foreigner - Cold As Ice
The Beatles - Being For The Benefit Of Mr. Kite
Pink floyd - Breathe
Aerosmith - Walk This Way
Survivor - Eye Of The Tiger