Hide Commercials
Did you know?
No 'did you know', Add an info for this song
Red Hot Chili Peppers - Parallel Universe Chords
Ranking: 5.84 Sign Up and Rank!

Red Hot Chili Peppers - Parallel Universe



Category: Rock | Familiar Songs
Intro - Guitar1:

                         Cm               
e|---------------------------------------|
B|---------------------------------------|
G|-x-x-x-x-x-x-x-x-x-x-x-8-8-8-8-8-8-8-8-|
D|---------------------------------------|
A|---------------------------------------|
E|---------------------------------------|

             Bb                 Dm             
e|--------------------------------------------|
B|--------------------------------------------|
G|-8-8-8-8-8-7-7-7-7-7-7-7-7-7-7-7-7-7-7-7----|
D|-----------------------------------------x-x|
A|--------------------------------------------|
E|--------------------------------------------|

     Eb                    G4                  
e|--------------------------------------------|
B|--------------------------------------------|
G|-------------------------------------5-5-5-5|
D|-x-x-x-x-x-x-x-5-5-5-5-5-5-5-5-5-5-5--------|
A|--------------------------------------------|
E|--------------------------------------------|

   G                                      
e|---------------------------------------|
B|---------------------------------------|
G|-5-5-5-5-5-5-5-5-5-4-4-4-4-4-4-4-4-4-4-|
D|---------------------------------------|
A|---------------------------------------|
E|---------------------------------------|

Guitar2:

   Cm                      Bb                 
e|-------------------------------------------|
B|-------------------------------------------|
G|-------------------------------------------|
D|-------------------------------------------|
A|-3-3-3-3-3-3-3-3-3-3-3-3-1-1-1-1-1-1-1-1-1-|
E|-------------------------------------------|

         Dm                      Eb         
e|-----------------------------------------|
B|-----------------------------------------|
G|-----------------------------------------|
D|-----------------------------------------|
A|-1-1-1-5-5-5-5-5-5-5-5-5-5-5-5-6-6-6-6-6-|
E|-----------------------------------------|

              G4                          
e|---------------------------------------|
B|---------------------------------------|
G|---------------------------------------|
D|---------------------------------------|
A|-6-6-6-6-6-6-6-------------------------|
E|---------------3-3-3-3-3-3-3-3-3-3-3-3-|

   G                                
e|---------------------------------|
B|---------------------------------|
G|---------------------------------|
D|-5-5-5-5-3-3-3-3-----------------|
A|-----------------6-6-6-6-5-5-5-5-|
E|---------------------------------|

Cm                   Bb            Dm
Deep inside of a parallel universe   
                        Eb    
It's getting harder and harder
   G4   G               Cm
To tell what came first   
Cm                              Bb            Dm
Under water where thoughts can breathe Easily   
                  Eb        G4   G            
Far away you were made in a sea  Just like me 

Chorus:

Cm           Cm/G  Ab Eb
Christ I'm a sidewinder 
     G4            G    Cm
I'm a   California King   
Cm        Cm/G Ab Eb    G4             G 
I swear it's everywhere   It's everything

Cm                            Bb          Dm
Staring straight up into the sky Oh my my   
Dm                  Eb  
a solar system that fits
         G4 G        Cm
In your eye Microcosm  

Cm                           Bb             Dm
You could die but your never dead spider web  
Dm                  Eb     
Take a look at the stars in
     G4   G                   Cm
Your head fields of space kid   

Repeat Chorus x2

Bridge:

Guitar1:

e|---------------------------------|
B|---------------------------------|
G|---------------------------------|
D|---------------------------------|
A|-3-3-3-3-------------------------|
E|---------3-3-3-3-4-4-4-4-1-1-1-1-|

Guitar2:

e|---------------------------------|
B|-4-4-4-4-4-4---------------------|
G|-------------3-3-3-3-3-3---------|
D|-------------------------5-5-5-5-|
A|---------------------------------|
E|---------------------------------|

Cm                      
Psychic changes are born
        Bb             Dm
in your heart Entertain  
Dm                          Eb           G4  
A nervous breakthrough that makes us the same
 G                   Cm
Bless your heart girl  
Cm                             Bb
Kill the pressure it's raining on
             Dm
Salty Cheeks   
Dm                 Eb     G4  
When you hear the beloved song
G             
I am with you 

Repeat Chorus x2
If you like the way the song is edited, help us grow with your like please
More songs of Red Hot Chili Peppers:
Emit Remmus Around the World Right On Time Snow Get On Top Californiacation Give It Away Otherside Purple Stain Savior
More songs from the category Rock:
Madness - House Of Fun
Neil Young - Cinnamon Girl
Tears for Fears - Mad World
Jack Johnson - If I Had Eyes
Queen - Bohemian Rhapsody