Hide Commercials
Did you know?
No 'did you know', Add an info for this song
Scorpions - Wind Of Change Chords
Ranking: 5.64 Sign Up and Rank!

Scorpions - Wind Of Change



Intro:
F Dm F Dm Am7 Dm Am7 G

C               Dm 
I follow the Moskva
              C   
Down to Gorky Park
                 Dm      Am7  G
Listening to the wind of change
C                Dm   
An August summer night
                 C 
Soldiers passing by
                 Dm      Am7  G
Listening to the wind of change

Bridge:
F9 Dm F Dm Am7 Dm Am7 G

C                    Dm
The world is closing in
             C    
Did you ever think
                    Dm          Am7    G
That we could be so close, like brothers
C                   Dm 
The future's in the air
                   C    
I can feel it everywhere
                 Dm      Am7  G
Blowing with the wind of change

Chorus:

C    G         Dm           G     
Take me to the magic of the moment
     C     G    
On a glory night
          Dm            G             Am 
Where the children of tomorrow dream away
Am/F           G     
In the wind of change

C                Dm    
Walking down the street
            C   
Distant memories
                  Dm      Am7 G
Are buried in the past forever 

C               Dm 
I follow the Moskva
              C   
Down to Gorky Park
                 Dm      Am7  G
Listening to the wind of change

C    G         Dm           G     
Take me to the magic of the moment
     C     G    
On a glory night
          Dm            G                  Am    
Where the children of tomorrow share their dreams
Am/F         G 
With you and me

Repeat Chorus

Am                       G       
The wind of change blows straight
                 Am  
Into the face of time
                           G   
Like a stormwind that will ring
                              C   
The freedom bell for peace of mind
                   Dm  
Let your balalaika sing
                        E     E
What my guitar wants to say    

Solo:

e|----------------------------12b--------------------------------------------|
B|------12-12b--------12-12b-------------12-13-12h13p12----------------------|
G|12-14---------12-14--------------12-14----------------12-14--12----12-14p12|
D|----------------------------------------------------------------14---------|
A|---------------------------------------------------------------------------|
E|---------------------------------------------------------------------------|

e|--------------------------------------------------------------17--15-14-|
B|-------------------------------------------------------17---------------|
G|----------------------------------------14-16b-16b-16b----16b-----------|
D|-13-14-/16-14-13-14-12h14p12-10-12---17---------------------------------|
A|------------------------------------------------------------------------|
E|------------------------------------------------------------------------|

e|12-12----------------------------------------------12-----16---14-12-14-16-|
B|------------------------------------------------------14-------------------|
G|---------------------------------------------------------------------------|
D|------------------------------12-14--12-14-12---15-------------------------|
A|--------12---12-15-14---14-15----------------------------------------------|
E|---------------------------------------------------------------------------|

C    G         Dm           G     
Take me to the magic of the moment
     C     G    
On a glory night
          Dm            G                  Am    
Where the children of tomorrow share their dreams
Am/F         G 
With you and me

Repeat Chorus

Outro:
F Dm F Dm Am7 Dm
If you like the way the song is edited, help us grow with your like please
More songs of Scorpions:
Send Me An Angel Still Loving You Rock You Like A Hurricane You And I
More songs from the category Pop:
Madonna - Hollywood
The Script - Hall Of Fame
R.E.M. - Drive
KYGO - Stole The Show
ABBA - When I Kissed The Teacher