Hide Ads »

Once chords by Pearl Jam


Rock
No Easy Version
Intro & verses:

  A5                         
e|--------------------------|
B|--------------------------|
G|---------------5----------|
D|-5-7-5-7---8-7----8-7-8-7-|
A|--------------------------|
E|--------------------------|

A5                                      
I admit it... what's to say... yeah...  
A5                                      
I'll relive it... without pain... mmm...
A5                                      
Backstreet lover on the side of the road
A5                                             
I got a bomb in my temple that is gonna explode
A5                                            
I got a sixteen gauge buried under my clothes,
   Bb    
I play...

Chorus:

Gm  Am       Bb   C             Gm    Am   Bb C
Once  upon a time   I could control myself     
      Gm  Am        Bb   C
Ooh,  once   upon a time  
        Gm   Dm   Bb        
I could lose myself, yeah...
A5                                            
Oh, try and mimic what's insane...ooh, yeah...
A5                            
I am in it...where do I stand?
A5                                   
Oh, Indian summer and I hate the heat
A5                                            
I got a backstreet lover on the passenger seat
                           
I got my hand in my pocket,
                             Bb     
so determined, discreet... I pray...

Repeat Chorus

Solo:

    G         C#5 C5       
e|---------------------|--|
B|--8-8-8-6------------|--|
G|----------7--6--5----|--|
D|-------------------5-|x4|
A|---------------------|--|
E|---------------------|--|

e|-------------------------------|--|
B|-8-8-8-8-6----8s10---10-10--8\-|--|
G|-----------7-------------------|--|
D|-------------------------------|x4|
A|-------------------------------|--|
E|-------------------------------|--|

You think I got my eyes closed
But I'm lookin' at you the whole fuckin' time

Repeat Chorus x2
Bridge:
A5 A5 A5 A5 x4

Gm Am  Bb  C  Gm Am  Bb  C   
Once   Once   Once   Once  x2
  Gm   Am     Bb  C  Gm Am  Bb  C   
Yeah...yeah, yeah...yeah, yeah...oww
Bridge:
A5 A5 A5 A5 x4

Ending:
A5 A5 A5 A5 x4
Pearl Jam
Yellow LedbetterJeremyBlackWhy GoLast KissAlive
Rock
U2 - In The Name Of Love
The Doors - People are Strange
Jack Johnson - Better Together
The Beatles - Baby It's You
The Art Company - Susanna