Hide Commercials
Did you know?
No 'did you know', Add an info for this song
Pink floyd - Is There Anybody Out There Chords
Ranking: 6.02 Sign Up and Rank!

Pink floyd - Is There Anybody Out There



Category: Rock
e|-------0-------------0---------------0---------|
B|-----1---1----------1---1----------1---1-------|
G|---2------2---2---2-------2---2---2------2---2-|
D|-2----------2---3-----------3---4----------4---|
A|-----------------------------------------------|
E|-----------------------------------------------|

e|------0-----------------0--------0-|
B|----1---1-------------1--------1---|
G|---2-------2---2----2--------2-----|
D|-3-----------3----2--------0-------|
A|-----------------------------------|
E|-----------------------------------|

e|-------0-------0---------0-----------------------|
B|-----1-------1---------1---1---------------1-----|
G|---2-------2---------2-------2-----------2---2---|
D|-------------------2-----------2---2---2-------2-|
A|-3-------2-------0---------------0---0-----------|
E|-------------------------------------------------|

e|---------0---------------------------0--------|
B|-------1---1---------------1-------1---1------|
G|-----2-------2-----------2-------2------2---2-|
D|---2-----------2---2---2-------2----------2---|
A|-0---------------0---0------------------------|
E|----------------------------------------------|

e|-------0---------------0--------------0---------|
B|-----1---1-----------1---1----------1---1-------|
G|---2-------2---2---2------2---2---2-------2---2-|
D|-3-----------3---4----------4---3-----------3---|
A|------------------------------------------------|
E|------------------------------------------------|

e|-------0-------0---------0---------------0------|
B|-----1-------1-------1-----1---1-----1----------|
G|---2-------2-------2---2-----2-----2---2--------|
D|-3-------2-------0---------------0--------------|
A|---------------------------------------------3-2|
E|------------------------------------------------|

e|---------0--------------------------------0-------|
B|-------1---1----------------1-----------1---1-----|
G|-----2-------2------------2---2-------2-------2---|
D|---2-----------2----2---2-------2---2-----------2-|
A|-0----------------0---0-----------0---------------|
E|--------------------------------------------------|

e|-------------------------0---------------0-----|
B|-----------1---------1-----1---1-----1-----3p1-|
G|---------2---------0---0-----0-----0---0-------|
D|---2---2---------------------------------------|
A|-0---0--------0--3---------------2-------------|
E|-----------------------------------------------|

e|---------0---------------------------------0-------|
B|-----1------------5-5p3-3p1-1p0-0------1-----1---1-|
G|---0---0-----------------------------0---0-----0---|
D|---------------------------------------------------|
A|-0---------------------------------3---------------|
E|---------------------------------------------------|

e|---------0---------------0----------8------7------|
B|-----1-----3p1-------1----------------------------|
G|---0---0-----------0---0----------9------7--------|
D|--------------------------------------------------|
A|-2---------------0--------------------------------|
E|--------------------------------------------------|

e|-------0-------------0---------------0---------|
B|-----1---1----------1---1----------1---1-------|
G|---2------2---2---2-------2---2---2------2---2-|
D|-2----------2---3-----------3---4----------4---|
A|-----------------------------------------------|
E|-----------------------------------------------|

e|------0-----------------0--------0-|
B|----1---1-------------1--------1---|
G|---2-------2---2----2--------2-----|
D|-3-----------3----2--------0-------|
A|-----------------------------------|
E|-----------------------------------|

e|-------0-------0-|-----------------|-5-7-8------12---|
B|-----1-------1---|-------1----1/5--|------------10---|
G|---2-------2-----|-----2-----------|------------9----|
D|-----------------|---2-------------|------------10---|
A|-3-------2-------|-0---------------|------------0----|
E|-----------------|-----------------|-----------------|
If you like the way the song is edited, help us grow with your like please


More songs of Pink floyd:
Wish You Were Here Breathe If Green Is The Colour Brain Damage Mother learning to fly Comfortably numb
More songs from the category Rock:
Aerosmith - Legendary Child
Mike Oldfield and Maggie Reilly - Moonlight Shadow
Led Zeppelin - Communication Breakdown
Spandau Ballet - Gold
Jimi Hendrix - Purple Haze