My Songs
Hide Ads »

Jimi Hendrix - Fire


Rock
To view Strummings you must be a logged in userSign up \ Login
Add song No Easy Version Playing Menu
Intro:

e|-------------------|--|-------------|
B|-9--8\----6-8------|--|-------------|
G|--------------7-7--|x2|-------------|
D|-6--5-----3-5------|--|-------------|
A|--------------5-5--|--|-------3-5-5-|
E|-------------------|--|-----5-------|

Verses:

e||---------||
B||---------||
G||---------||
D||---------||
A||---3-5-5-||
E||-5-------||

Alright,now listen, baby
You don't care for me
I don'-a care about that
Gotta new fool, ha!
I like it like that
I have only one burning desire
Let me stand next to your fire

Chorus:

D                         
Am     
Let me stand next to your fire x4

Listen here, baby
and stop acting so crazy
You say your mum ain't home, it ain't my concern,
Just play with me and you won't get burned
I have only one itching desire
Let me stand next to your fire

D                         
Am     
Let me stand next to your fire x4

D                    
C                            

Click for other display
A
Oh! Move over, Rover      and let Jimi take over   

Click for other display
A                                      
C
Yeah, you know what I'm talking 'bout   
C                         
Yeah, get on with it, baby

Solo:

e||-10b12--10b12--10b12-------10b12----10b12--10b12--6s7-|
B||---------------------8--------------------------------|
G||------------------------------------------------------|
D||------------------------------------------------------|
A||------------------------------------------------------|
E||------------------------------------------------------|

e|--10b12----10b12--10b12--6s7-----10b12--10b12-------------------||
B|-----------------------------------------------10b12--10b12---8-||
G|----------------------------------------------------------------||
D|----------------------------------------------------------------||
A|----------------------------------------------------------------||
E|----------------------------------------------------------------||

Repeat Intro

That's what I'm talking 'bout
Now dig this!  Ha!
Now listen, baby
You try to gimme your money
you better save it, babe
Save it for your rainy day
I have only one burning desire
Let me stand next to your fire

D                         
Am     
Let me stand next to your fire x4

Solo2:

e||-10b12--b12--b12-b12-b12-b12~-----10b12--b12--b12-b12-b12-b10-|
B||--------------------------------------------------------------|
G||--------------------------------------------------------------|
D||--------------------------------------------------------------|
A||--------------------------------------------------------------|
E||--------------------------------------------------------------|

e|-10-10-10-10-10b12-10-----10b12-10-10b12-10-10b12-10b12~-|
B|---------------------------------------------------------|
G|---------------------------------------------------------|
D|---------------------------------------------------------|
A|---------------------------------------------------------|
E|---------------------------------------------------------|

e|----10b12-10-10b12---------------------10b12--b12--b12-b12-b12-b10-|
B|--------------------10b12--8~--------------------------------------|
G|-------------------------------------------------------------------|
D|-------------------------------------------------------------------|
A|-------------------------------------------------------------------|
E|-------------------------------------------------------------------|

e|-10-10-10-10-8-----||
B|-------------------||
G|---------------10~-||
D|-------------------||
A|-------------------||
E|-------------------||
Bridge:
D A D D x4


Ending:
D D D A x4
Jimi Hendrix
AngelLittle WingPurple HazeHey Joe
Rock
Incubus - Drive
Nirvana - In Bloom
Red Hot Chili Peppers - Otherside
Jack Johnson - Upside Down
Nickelback - Hero